» » »

Eels, Souljacker Tabs (ver.3)

Artists:  A B C D E F G H I J K L M N O P Q R S T U V W X Y Z # 

Souljacker Tabs (ver.3)

Eels Tabs
Rating:
0/5 (0 votes)
Souljacker lessons Tabs too difficult? Try these video lessons and learn fast
                SOULJACKER PART 1  _EELS_

if you find any mistakes in this tab mail le
if you like this tab, please rate!

22 miles of heard road
33 years of though luck
44 skulls buried in the ground
crawling down through the muck
aw yeah...

E---------------------------|
B---------------------------|
G---------------------------|
D---------------------------|
A---------------------------|
E--0--0-0-2-3--0--0--0-2-3--|

sisters' brothers make better lovers
family affair down under the covers
trailer park of broken hearts
won't let you leave until you...
ROCK!!

E-------------------------|
B-------------------------|
G-------------------------| X4
D--0-0--4-5--0--0--0-4-5--|
A--2-2--4-5--2--2--2-4-5--|
E--0-0--2-3--0--0--0-2-3--|

E-------------------------|
B-------------------------|
G-------------------------| X2
D--2-2--4-5--2--2--2-4-5--|
A--0-0--2-3--0--0--0-2-3--|
E-------------------------|

E-------------------------|
B-------------------------|
G-------------------------| X2
D--0-0--4-5--0--0--0-4-5--|
A--2-2--4-5--2--2--2-4-5--|
E--0-0--2-3--0--0--0-2-3--|

22 miles of hard road
33 years of though luck
44 skulls buried in the ground
crawling down trough the muck
ow yeah..

this are the basics,
I hope you'll enjoy it
            
Submit corrections

comments powered by Disqus
↑ Back to top | Eels Tabs for Souljacker. Lyrics for acoustic guitar and electric guitar. Tablatures and chords are parodies/interpretations of the original songs. You may use it for private study, scholarship, research or language learning purposes only