» » »

Saturday Morning Tabs (ver.1)

Artists:  A B C D E F G H I J K L M N O P Q R S T U V W X Y Z # 

Saturday Morning Tabs (ver.1)

Eels
Rating:
0/5 (0 votes)

Tabs too difficult? Try these video lessons and learn fast.
                Intro/Verse
 guitar 1

e/---x--x-x---x---x-x--x--9--x---7-7-7-7-7----------------------------------|
B/---9--9-9---7---7-x--x--9--x---7-7-7-7-7----------------------------------|
G/---9--9-9---7---7-x--9--9--9---7-7-7-7-7----------------------------------|
D/---9--9-9---7---7-x--11-11-11--9-9-9-9-9----------------------------------|
A/---7--7-7---5---5-x--11-11-11--9-9-9-9-9----------------------------------|
E/---0--0-0---0---0-x--9--9--9---7-7-7-7-7----------------------------------|

e/---x--x-x---x---x-x--x--x--x---5-5-7-7------------------------------------|
B/---9--9-9---7---7-7--x--x--x---5-5-7-7------------------------------------|
G/---9--9-9---7---7-7--9--9--9---5-5-7-7------------------------------------|
D/---9--9-9---7---7-7--11-11-11--7-7-9-9------------------------------------|
A/---7--7-7---5---5-5--11-11-11--7-7-9-9------------------------------------|
E/---0--0-0---0---0-0--9--9--9---5-5-7-7------------------------------------|


 2nd Guitar Intro after 12 seconds (3 1/2 times of the intro)
e/----------(21)------------------------------------------------------------|
B/-------------(21)----15~/-------------------------------------------------|
G/--12\(0)----------------------12------------------------------------------|
D/--------------------------------------------------------------------------|
A/--------------------------------------------------------------------------|
E/--------------------------------------------------------------------------|


 pre verse
e/--x-x-x-x-x-x-x-x-x-x-x-x-x-x-x-------------------------------------------|
B/--9-9-9-9-9-9-9-9-9-9-9-9-9-9-7-------------------------------------------|
G/--9-9-9-9-9-9-9-9-9-9-9-9-9-9-7-------------------------------------------|
D/--9-9-9-9-9-9-9-9-9-9-9-9-9-9-7-------------------------------------------|
A/--7-7-7-7-7-7-7-7-7-7-7-7-7-7-5-------------------------------------------|
E/--0-0-0-0-0-0-0-0-0-0-0-0-0-0-0-------------------------------------------|

 chorus (high singing bit)
e/--------------------------------------------------------------------------|
B/--------------------------------------------------------------------------|
G/--------------------------------------------------------------------------|
D/--5-5-5--4---4-4---7--7-7---9-9-9-9-9-------------------------------------|
A/--5-5-5--4---4-4---7--7-7---9-9-9-9-9-------------------------------------|
E/--3-3-3--2---2-2---5--5-5---7-7-7-7-7-------------------------------------|

 solo 1
e/--------------------------------------------------------------------------|
B/--------------------------------------------------------------------------|
G/--15~-15~-15~--15~-15~-15~--15-15--15b(16)bd15--15~-15~-15~--15~-15~-15~--|
D/-------------14-----------14-----14-----------14-----------14-------------|
A/--------------------------------------------------------------------------|
E/--------------------------------------------------------------------------|


e/---------------------------------------------------------------------------|
B/-----------15b(17)---------------------------------------------------------|
G/----15-15------------------------------------------------------------------|
D/--14-----14--------12-12-12-12b(13)-(13)-(13)-(13)-(14)-(14)-(14)-(14)bd12-|
A/---------------------------------------------------------------------------|
E/---------------------------------------------------------------------------|


e/-------------------------------------------------------------12--12--12-12-|
B/---------------------------------------------------------------------------|
G/--15---------15--------15--------15--------15--------15--------------------|
D/--14b(15)----14(15)----14(15)----14(15)----14(15)----14(15)----------------|
A/---------------------------------------------------------------------------|
E/---------------------------------------------------------------------------|
            
Tabs too difficult? Try these video lessons and learn fast.




comments powered by Disqus
↑ Back to top | Tablatures and chords are parodies/interpretations of the original songs. You may use it for private study, scholarship, research or language learning purposes only