» » »

Eels, Royal Pain Tabs (ver.1)

Artists:  A B C D E F G H I J K L M N O P Q R S T U V W X Y Z # 

Royal Pain Tabs (ver.1)

Eels Tabs
Rating:
0/5 (0 votes)
Royal Pain lessons Tabs too difficult? Try these video lessons and learn fast
                Hello, and this is the guitar tab to the Eels' song "Royal Pain", featured exclusively 
the soundtrack to "Shrek the Third." The chorus is very hard to get because of the 
on the guitar, and I'm completely open to suggestions.

To get the tabbing pattern down, you'll have to listen to the song. It's a bit hard to transcribe.

INTRO:                     (drumroll)
e--------------------------------------------------------------|
B--------------------------------------------------------------|
G--------------------------------------------------------------|
D--------------------------------------------------------------|
A--------------------------------------------------------------|
E--15--14--12--10--8--7--5--10---------------------------------|

VERSE:
"I got some sleep, and I needed it."

e------------------------------------------------------|
B------------------------------------------------------|
G------------------------------------------------------|
D------------------------------------------------------|
A-15--14--12--10--10/12--12/15-------------------------|
E-15--14--12--10--10/12--12/15-------------------------|

"Not a lot, just a little bit."

e------------------------------------------------------|
B------------------------------------------------------|
G------------------------------------------------------|
D------------------------------------------------------|
A-15--14--12--10--10/12--12/15-------------------------|
E-15--14--12--10--10/12--12/15-------------------------|

"Someone's always tryin' to keep me from it--"

e------------------------------------------------------|
B------------------------------------------------------|
G------------------------------------------------------|
D------------------------------------------------------|
A-15--14--12--10--10/12--12----------------------------|
E-15--14--12--10--10/12--12----------------------------|

CHORUS
"It's a cryyyyin' shame."

e------------------------------------------------------|
B------------------------------------------------------|
G-------7-7-7-7----------------------------------------|
D-------7-7-7-7---5-5-5-5------------------------------|
A-------5-5-5-5---5-5-5-5------------------------------|
E-----------------3-3-3-3------------------------------|

"It's a roooooyal pain in the neck,"

e------------------------------------------------------|
B------------------------------------------------------|
G--------7-7-7-7---------------------------------------|
D--------7-7-7-7----5-5-3-3----------------------------|
A--------5-5-5-5----5-5-3-3----------------------------|
E-------------------3-3-1-1----------------------------|

"I'm just tryin' to get by with my pride,"

e------------------------------------------------------|
B------------------------------------------------------|
G---------5-5------------------------------------------|
D---------5-5----7-7------10-10-10---------------------|
A---------3-3----7-7------10-10-10---------------------|
E----------------5-5------8--8--8----------------------|

"A little bit intact."

e--------------------------------------------------------|
B--------------------------------------------------------|
G--------------------------------------------------------|
D--10-10-10-----12-12-12-12-12-12------------------------|
A--10-10-10-----12-12-12-12-12-12------------------------|
E--8--8--8------10-10-10-10-10-10------------------------|

VERSE:
"Ask me any question and I'll level with you."

e------------------------------------------------------|
B------------------------------------------------------|
G------------------------------------------------------|
D------------------------------------------------------|
A-15--14--12--10--10/12--12----------------------------|
E-15--14--12--10--10/12--12----------------------------|

"I didn't ask for anything I needed from you."

e------------------------------------------------------|
B------------------------------------------------------|
G------------------------------------------------------|
D------------------------------------------------------|
A-15--14--12--10--10/12--12----------------------------|
E-15--14--12--10--10/12--12----------------------------|

"And that's the only thing I was going to do."

CHORUS:
"For Loooooord's sake."

e------------------------------------------------------|
B------------------------------------------------------|
G-------7-7-7-7----------------------------------------|
D-------7-7-7-7---5-5-5-5------------------------------|
A-------5-5-5-5---5-5-5-5------------------------------|
E-----------------3-3-3-3------------------------------|

"It's a roooooyal pain in the neck,"

e------------------------------------------------------|
B------------------------------------------------------|
G--------7-7-7-7---------------------------------------|
D--------7-7-7-7----5-5-3-3----------------------------|
A--------5-5-5-5----5-5-3-3----------------------------|
E-------------------3-3-1-1----------------------------|

"I'm just tryin' to get by with my pride,"

e------------------------------------------------------|
B------------------------------------------------------|
G---------5-5------------------------------------------|
D---------5-5----7-7------10-10-10---------------------|
A---------3-3----7-7------10-10-10---------------------|
E----------------5-5------8--8--8----------------------|

"A little bit intact."

e--------------------------------------------------------|
B--------------------------------------------------------|
G--------------------------------------------------------|
D--10-10-10-----12-12-12-12-12-12------------------------|
A--10-10-10-----12-12-12-12-12-12------------------------|
E--8--8--8------10-10-10-10-10-10------------------------|

BRIDGE:

e--------------------------------------------------------------|
B--------------------------------------------------------------|
G--------------------------------------------------------------|
D--------------------------------------------------------------|
A--------------------------------------------------------------|
E--15--14--12--10--8--7--5--10---------------------------------|

                            (drumroll)
e--------------------------------------------------------------|
B--------------------------------------------------------------|
G--------------------------------------------------------------|
D--------------------------------------------------------------|
A--------------------------------------------------------------|
E--15--14--12--10--8--7--5--10---------------------------------|

CHORUS: (no lyrics)

e------------------------------------------------------|
B------------------------------------------------------|
G-------7-7-7-7----------------------------------------|
D-------7-7-7-7---5-5-5-5------------------------------|
A-------5-5-5-5---5-5-5-5------------------------------|
E-----------------3-3-3-3------------------------------|

e------------------------------------------------------|
B------------------------------------------------------|
G--------7-7-7-7---------------------------------------|
D--------7-7-7-7----5-5-3-3----------------------------|
A--------5-5-5-5----5-5-3-3----------------------------|
E-------------------3-3-1-1----------------------------|

e------------------------------------------------------|
B------------------------------------------------------|
G---------5-5------------------------------------------|
D---------5-5----7-7------10-10-10---------------------|
A---------3-3----7-7------10-10-10---------------------|
E----------------5-5------8--8--8----------------------|

e--------------------------------------------------------|
B--------------------------------------------------------|
G--------------------------------------------------------|
D--10-10-10-----12-12-12-12-12-12------------------------|
A--10-10-10-----12-12-12-12-12-12------------------------|
E--8--8--8------10-10-10-10-10-10------------------------|

VERSE:
"Another day is put to the test."

e------------------------------------------------------|
B------------------------------------------------------|
G------------------------------------------------------|
D------------------------------------------------------|
A-15--14--12--10--10/12--12----------------------------|
E-15--14--12--10--10/12--12----------------------------|

"Lord knows I'm doin' my best."

e------------------------------------------------------|
B------------------------------------------------------|
G------------------------------------------------------|
D------------------------------------------------------|
A-15--14--12--10--10/12--12----------------------------|
E-15--14--12--10--10/12--12----------------------------|

"Never a brother, always against..."

e------------------------------------------------------|
B------------------------------------------------------|
G------------------------------------------------------|
D------------------------------------------------------|
A-15--14--12--10--10/12--12----------------------------|
E-15--14--12--10--10/12--12----------------------------|

CHORUS:
"It's a cryyyyin' shame."

e------------------------------------------------------|
B------------------------------------------------------|
G-------7-7-7-7----------------------------------------|
D-------7-7-7-7---5-5-5-5------------------------------|
A-------5-5-5-5---5-5-5-5------------------------------|
E-----------------3-3-3-3------------------------------|

"It's a roooooyal pain in the neck,"

e------------------------------------------------------|
B------------------------------------------------------|
G--------7-7-7-7---------------------------------------|
D--------7-7-7-7----5-5-3-3----------------------------|
A--------5-5-5-5----5-5-3-3----------------------------|
E-------------------3-3-1-1----------------------------|

"I'm just tryin' to get by with my pride,"

e------------------------------------------------------|
B------------------------------------------------------|
G---------5-5------------------------------------------|
D---------5-5----7-7------10-10-10---------------------|
A---------3-3----7-7------10-10-10---------------------|
E----------------5-5------8--8--8----------------------|

"A little bit intact."

e------------------------------------------------------|
B------------------------------------------------------|
G------------------------------------------------------|
D--10-10-10-----12-12-12-12-12-12----------------------|
A--10-10-10-----12-12-12-12-12-12----------------------|
E--8--8--8------10-10-10-10-10-10----------------------|

CHORUS: (no lyrics)

e------------------------------------------------------|
B------------------------------------------------------|
G-------7-7-7-7----------------------------------------|
D-------7-7-7-7---5-5-5-5------------------------------|
A-------5-5-5-5---5-5-5-5------------------------------|
E-----------------3-3-3-3------------------------------|

e------------------------------------------------------|
B------------------------------------------------------|
G--------7-7-7-7---------------------------------------|
D--------7-7-7-7----5-5-3-3----------------------------|
A--------5-5-5-5----5-5-3-3----------------------------|
E-------------------3-3-1-1----------------------------|

e------------------------------------------------------|
B------------------------------------------------------|
G---------5-5------------------------------------------|
D---------5-5----7-7------10-10-10---------------------|
A---------3-3----7-7------10-10-10---------------------|
E----------------5-5------8--8--8----------------------|

e--------------------------------------------------------|
B--------------------------------------------------------|
G--------------------------------------------------------|
D--10-10-10-----12-12-12-12-12-12------------------------|
A--10-10-10-----12-12-12-12-12-12------------------------|
E--8--8--8------10-10-10-10-10-10------------------------|

CHORUS:
"For Loooooord's sake."

e------------------------------------------------------|
B------------------------------------------------------|
G-------7-7-7-7----------------------------------------|
D-------7-7-7-7---5-5-5-5------------------------------|
A-------5-5-5-5---5-5-5-5------------------------------|
E-----------------3-3-3-3------------------------------|

"It's a roooooyal pain in the neck,"

e------------------------------------------------------|
B------------------------------------------------------|
G--------7-7-7-7---------------------------------------|
D--------7-7-7-7----5-5-3-3----------------------------|
A--------5-5-5-5----5-5-3-3----------------------------|
E-------------------3-3-1-1----------------------------|

"I'm just tryin' to get by with my pride,"

e------------------------------------------------------|
B------------------------------------------------------|
G---------5-5------------------------------------------|
D---------5-5----7-7------10-10-10---------------------|
A---------3-3----7-7------10-10-10---------------------|
E----------------5-5------8--8--8----------------------|

"A little bit intact."

e------------------------------------------------------|
B------------------------------------------------------|
G------------------------------------------------------|
D--10-10-10-----12-12-12-12-12-12----------------------|
A--10-10-10-----12-12-12-12-12-12----------------------|
E--8--8--8------10-10-10-10-10-10----------------------|

OUTRO:
e---------------------------3--------------------------|
B---------------------------3--------------------------|
G---------------------------4--------------------------|
D---------------------------5--------------------------|
A---------------------------5--------------------------|
E--15--14--12--10--8--7--5--3--------------------------|
            
Submit corrections

comments powered by Disqus
↑ Back to top | Eels Tabs for Royal Pain. Lyrics for acoustic guitar and electric guitar. Tablatures and chords are parodies/interpretations of the original songs. You may use it for private study, scholarship, research or language learning purposes only