» » »

Eels, Rags To Tags Tabs (ver.1)

Artists:  A B C D E F G H I J K L M N O P Q R S T U V W X Y Z # 

Rags To Tags Tabs (ver.1)

Eels Tabs
 Rating:
4/5 (4 votes)
Rags To Tags lessons Tabs too difficult? Try these video lessons and learn fast
1
                

riff chords:

Am - 002210
B - 003210 ( not sure of the name)


chorus chords:

E - 355xxx
F - 0355xx
Eb-0577xx
E?-055xxx


intro/verse 
x------------------------------------------------ 
x--------1----------1----------1---------1----
x-----2----2----2----2----2----2----2---2-- 
x--2----------3----------2----------3---------
x------------------------------------------------ 
x------------------------------------------------ --------
DISTORTED) (is played with distorted part)
x---/----/--------0-/-----------0-/---------0--/------0-/-----------------
x --1----1-----------1------------1----------1---------1----------------
x---1----1--------------1-----------1----------1---------1-------1-----1
x --2----3---2-------------3---------2----------3---------2---2-----2-
x----------------------------------------------------------------2----1-
x---------------------------------------------------------------------------



x------0------0-------0--------0-------0-------0--------
x--------1------1-------1-------1--------1-------1-----
x----------2------2--------2-------2--------2-------2---
x----2-------3------2-------3-------2---------3--------2--
x-----------------------------------------------------------
x----------------------------------------------------------

ref.

x------------------------------------------------------------------
x------------------------------------------------------------------
x---------------------5---5--5---7----7--7--7----------------
x--5----5--5--5----5---5--5---7----7--7--7--6--6---------
x--5----5--5--5----3---3--3---5----5--5--5--6--6--4--7--
x--3----3--3--3-------------------------------------------------

Solo:

x-------------------------------------------------------------------------
x------------------------------------------------------------------------
x---------------------------------------------------------------------------
x-8-8-8-8-6-4-2-3-1-1-1-2-1-11-11-11--13-13--13--13-14--
x----------------------------------------------------------------------------
x---------------------------------------------------------------------------

x----------------------------------
x--------------14-----------------
x-12-11-15---------------------
x-----------------------------------
x----------------------------------
x----------------------------------
            
Submit corrections

comments powered by Disqus
↑ Back to top | Eels Tabs for Rags To Tags. Lyrics for acoustic guitar and electric guitar. 1 Tablatures and chords are parodies/interpretations of the original songs. You may use it for private study, scholarship, research or language learning purposes only