» » »

Eels, Peach Blossom Tabs (ver.1)

Artists:  A B C D E F G H I J K L M N O P Q R S T U V W X Y Z # 

Peach Blossom Tabs (ver.1)

Eels Tabs
Rating:
0/5 (0 votes)
Peach Blossom lessons Tabs too difficult? Try these video lessons and learn fast
                Tempo = 120


Main Guitar riff (with Octaver) :
E ||---------------|----------------------------|------------------------|
B ||---------------|----------------------------|------------------------|
G ||---------------|----------------------------|------------------------|
D ||---------------|----------------------------|------------------------|
A ||-10------------|-----13----13---------------|--------11--------------|
E ||-------10------|--------------13------------|--------------11--------|

---------------------------|||
---------------------------|||
---------------------------|||
---------------------------|||
--------------10-----------|||
-----10-10-10--------------|||

Second guitar  :
E ||---------------|----------------------------|------------------------|
B ||---------------|----------------------------|------------------------|
G ||4-----2--------|-----7-----7--5-------------|--------5-----3---------|
D ||---------------|----------------------------|------------------------|
A ||---------------|----------------------------|------------------------|
E ||---------------|----------------------------|------------------------|

                                         this note appear at the end
---------------------------|||--------------------------------------|||
---------------------------|||-15-15-15-15-15-15-15-15--------------|||
-----2--2--2--4------------|||--------------------------------------|||
---------------------------|||--------------------------------------|||
---------------------------|||--------------------------------------|||
---------------------------|||--------------------------------------|||

Guitar Break #1 :
A   A#   B A#   x2

Guitar Break #2 :
E |--------------------------------|----------------------------||
B |--0-----------------------------|--0-------------------------||
G |-----4-----4--5-----5-----------|-----4-----4--2L----2-------||
D |--------------------------------|----------------------------||
A |--------------------------------|----------------------------||
E |--------------------------------|----------------------------||   x2

Guitar Capo 10 :
During Break #1
E |-------------------------------------------------------------------------|
B |-------------------------------------------------------------------------|
G |----------------------4s-6b----------------------4-----------------------|
D |----------------------4s-6b----------------------------------------------|
A |-------------------------------------------------------------------------|
E |-------------------------------------------------------------------------|
                                                     X4

end Chords :
    A       E        C          G
||---------------------|------------------------|
||-------2--0----------|--1--------0------------|
||------------1--------|-----0--------0---------|
||----2----------2-----|--------2--------0------|
||-0-------------------|------------------------|
||---------------------|------------------------|

A#         F           E          A
----------------------|--------------------||
----------------------|--------------------||
--3--------2----------|--1--------2--------||
-----3--------3-------|-----2--------2-----||
--------1--------3----|--------2--------0--||
----------------------|--------------------||
            

comments powered by Disqus
↑ Back to top | Eels Tabs for Peach Blossom. Lyrics for acoustic guitar and electric guitar. Tablatures and chords are parodies/interpretations of the original songs. You may use it for private study, scholarship, research or language learning purposes only