» » »

Not Ready Yet Tabs (ver.1)

Artists:  A B C D E F G H I J K L M N O P Q R S T U V W X Y Z # 

Not Ready Yet Tabs (ver.1)

Eels
Rating:
0/5 (0 votes)

Hard to play? Try these video lessons and learn fast.
                

This is Played with a Capo on the 7th fret... Therefore a 2
is actually equal to a 9, but you are only playing the 2nd note
after the capo.. hope that makes sense

This isnt hte whole song, but you get the idea, during the verses
just pick the A minor chord, during the chorus just strum it..
The one fill is at the bottom of the tab..

E-----------------------------------------------------------------------
B---1--1--0----------------------1--1--0--------------------------------
G---2--2--0----------------------2--2-----2--0--------------------------
D---2--2--2-------------0--------2--2-----------------------------------
A------------------0h2-----3--------------------------------------------
E---------------0-------------------------------------------------------


E--------------------------------------0--------------
e---1--1--2----------------------1--------1-----------
G---2--2--0-------------------------------------------
D---2--2--0-------------0-----------2-----------------
A------------------0h2-----3--------------------------
E---------------0-------------------------------------

Guitar Fill

E---------------------------------
B---------------------------------
G---------------------------------
D---------------------------------
A---------------------------------
E-0h2h3p2p0-----------------------


This is the intro riff, but it's played through most of the song. I'm
not sure what the chords being played are but Am Em G (all capoed)
seems to work.


A *very* rough jab at the solo

e |-------------------------------|
B |------------10-----------------|
G |------9-11------11-9-----------|
D |-9-12--------------------------|
A |-------------------------------|
E |-------------------------------|

e |--------------------------------|
B |------------10-12-12-10---------|
G |------9-11--------------11 11-9-|
D |-9-12---------------------------|
A |--------------------------------|
E |--------------------------------|
            
Hard to play? Try these video lessons and learn fast. | Correct




comments powered by Disqus
↑ Back to top | Tablatures and chords are parodies/interpretations of the original songs. You may use it for private study, scholarship, research or language learning purposes only