» » »

New Alphabet Tabs (ver.1)

Artists:  A B C D E F G H I J K L M N O P Q R S T U V W X Y Z # 

New Alphabet Tabs (ver.1)

Eels
Rating:
0/5 (0 votes)

Hard to play? Try these video lessons and learn fast.
                Tempo = 94
Tune Standart

Gt1 :

Intro
                                           v     v
E |------------------------------|------------------------------|
B |------------------------------|------------------------------|
G |------------------------------|------------------------------|
D |--2--2-----2-----x-----x------|--2--------2-----2-----x------|
A |--3--0------------------------|--3--0--0--0-----0------------|
E |------------------------------|------------------------------|

           v     v
--------------------------------|-------------------------------|
--------------------------------|-------------------------------|
--------------------------------|-----------2--------2----------|
--0h-2h-2--2-----2--------------|--1h-2-----2--------2----------|
-----------0-----0-----3--------|-----------0--------0----------|
--------------------------------|-------------------------------|


-----------------------------------------------------------------------------|
-----------------------------------------------------------------------------|
-----------------------------2-----------------------------------2-----------|
--1h-2-----------------------2-----------------------------------2-----------|
-----------------------------0-----------------------------------0-----------|
-----------------------------------------------------------------------------|


-----------------------|------------------------------||
-----------------------|------------------------------||
---------2L------------|--2-----2--------2-----2------||
---------2L------------|--2-----2--------2-----2------||
---------0L------------|--0-----0--------0-----0------||
-----------------------|------------------------------||

Verse / Chorus
           A5
E |-------------------------------|------------------------------|
B |-------------------------------|------------------------------|
G |--------2--------2-----2L------|--2-----2--------2-----2------|
D |-1/2----2--------2-----2L------|--2-----2--------2-----2------|
A |--------0--------0-----0L------|--0-----0--------0-----0------|
E |-------------------------------|------------------------------|    x3

       E
--------0--------0-----0L---|--0-----0--------0-----0----||
--------0--------0-----0L---|--0-----0--------0-----0----||
--------1--------1-----1L---|--1-----1--------1-----1----||
--------2--------2-----2L---|--2-----2--------2-----2----||
--------2--------2-----2L---|--2-----2--------2-----2----||
--0-------------------------|----------------------------||    x1



Gtr 2 :

Verse / Chorus

E |-------------------------------------------------------------------------|
B |-------------------------------------------------------------------------|
G |-------------------------------------------------------------------------|
D |-------------------------------------------------------------------------|
A |-------------------------------------5----------5--7L--------------------|
E |--5----8-----------5-----------8-----------------------------------------|


------------------------------------------------------------------------|
------------------------------------------------------------------------|
------------------------------------------------------------------------|
------------------------------------------------------------------------|
--7-------------------------5/7-----------5-------3---------------------|
---------------------------------------------------------5------4-------|         x 3


-----------------------------|-----------------------------------------------|
-----------------------------|-----------------------------------------------|
-----------------------------|-----------------------------------------------|
-----------------------------|-----------------------------------------------|
--------------2--2-----------|----------------5/7-----------5-------3--------|
--0--------------------5L----|--5-----------------------------------------5--|    x1

Bridge :

E |--6-------------------------|--7-------------------------|
B |-----6----------------------|-----9----------------------|
G |--------7-------------------|--------7-------------------|
D |----------------------------|----------------------------|
A |----------------------------|----------------------------|
E |----------------------------|----------------------------|


--8---------------------------|----------------------------|
-----10-----------------------|-----8----------------------|
--------9---------------------|--9-----9-------------------|
-----------10L------10--------|-----------10L------10------|
------------------------------|----------------------------|
------------------------------|----------------------------|


----------------------------|--7-------------------------||
--10------------------------|-----10---------------------||
-----9----------------------|--------8L-8L-------8-------||
--------10------------------|-----------9----------------||
----------------------------|----------------------------||
----------------------------|----------------------------||
            
Hard to play? Try these video lessons and learn fast. | Correct




comments powered by Disqus
↑ Back to top | Tablatures and chords are parodies/interpretations of the original songs. You may use it for private study, scholarship, research or language learning purposes only