» » »

Eels, My Beloved Monster Bass tabs (ver.1)

Artists:  A B C D E F G H I J K L M N O P Q R S T U V W X Y Z # 

My Beloved Monster Bass tabs (ver.1)

Eels Tabs
 Rating:
4/5 (4 votes)
My Beloved Monster lessons Tabs too difficult? Try these video lessons and learn fast
                [] = 8 times

Song starts at 0:30



Chorus:
G-------------------------------
D-------------------------------
A---[7][5][7][5][7]5------------
E-------------------------------



Verse (a):	
		      |---- 4 times ----|	
G---------------------|-----------------|
D---------------------|-----------------|
A-------5-5------7575-|-----5-5-----7-5-|
E---5-5-----5-55------|-5-5-----5-5-----|



Chorus



Verse (b):
|------------ 2 Times ---------------|					
G-----------------|------------------|
D-----------------|-----------7------|
A-----5-5-----7-5-|-----5-5-----7575-|
E-5-5-----5-5-----|-5-5-----5--------|

 |--- 2 times ----|
G-----------------|------------|
D-----------------|------------|
A-----5-5-----7-5-|-----5-7----|
E-5-5-----5-5-----|-5-5-----5--|
            
Submit corrections

comments powered by Disqus
↑ Back to top | Eels Bass for My Beloved Monster. Lyrics for acoustic guitar and electric guitar. Tablatures and chords are parodies/interpretations of the original songs. You may use it for private study, scholarship, research or language learning purposes only