» » »

Eels, Lone Wolf Tabs (ver.4)

Artists:  A B C D E F G H I J K L M N O P Q R S T U V W X Y Z # 

Lone Wolf Tabs (ver.4)

Eels Tabs
 Rating:
4/5 (4 votes)
Lone Wolf lessons Tabs too difficult? Try these video lessons and learn fast
                ----------------------------------------------------------------------------
----------------------------------------------------------------------------
tuning: EADGBe (standard)


intro:
guitar 1
 e|--------------------------------------------------------------------------------|
 B|--------------------------------------------------------------------------------|
 G|--4---4/--7---7----------x--------4---4--x7---7--x------------------------------|
 D|--4---4/--7---7---5---5--x7-7-7-7-4---4--x7---7--x5--5--5-5-5-5--7--7--7-7-7-7--|
 A|--2---2/--5---5---5---5--x7-7-7-7-2---2--x5---5--x5--5--5-5-5-5--7--7--7-7-7-7--|
 E|------------------3---3--x5-5-5-5--------x-------x3--3--3-3-3-3--5--5--5-5-5-5--|


verse 1:
guitar 1
 e|-----------------------------------------------------------------|
 B|-----------------------------------------------------------------|
 G|--4---4--x7---7--x-------x-------x4---4--x7---7--x-------x-------|
 D|--4---4--x7---7--x5---5--x7---7--x4---4--x7---7--x5---5--x7---7--|
 A|--2---2--x5---5--x5---5--x7---7--x2---2--x5---5--x5---5--x7---7--|
 E|---------x-------x3---3--x5---5--x-------x-------x3---3--x5---5--|
     i       am            a lone..        ..always..      ..will be


 e|-----------------------------------------------------------------|
 B|-----------------------------------------------------------------|
 G|--4---4--x-------x-------x-------x-------------------------------|
 D|--4---4--x7---7--x5---5--x4---4--x2---2--2-2-2-2-4---4--4-4-4-4--|
 A|--2---2--x7---7--x5---5--x4---4--x2---2--2-2-2-2-4---4--4-4-4-4--|
 E|---------x5---5--x3---3--x2---2--x0---0--0-0-0-0-2---2--2-2-2-2--|
     i   feel fine i am    resigned..                    ..i am a lone


chorus 1:
guitar 1
 e|--------------------------------------------------------------------------------|
 B|--------------------------------------------------------------------------------|
 G|--4---4--x7---7--x-------x-------x4---4--x7---7--x------------------------------|
 D|--4---2--x7---7--x5---5--x7---7--x4---4--x7---7--x5--5--5-5-5-5--7--7--7-7-7-7--|
 A|--2---2--x5---5--x5---5--x7---7--x2---2--x5---5--x5--5--5-5-5-5--7--7--7-7-7-7--|
 E|---------x-------x3---3--x5---5--x-------x-------x3--3--3-3-3-3--5--5--5-5-5-5--|
guitar 2
 e|----------2~------------------------------2~------------------------------------|
 B|------3~------------------------------3~----------------------------------------|
 G|-/4~-----------------------------/4~--------------------------------------------|
 D|--------------------------------------------------------------------------------|
 A|--------------------------------------------------------------------------------|
 E|--------------------------------------------------------------------------------|
     wolf                i am a lone wolf

verse 2:
guitar 1
 e|-----------------------------------------------------------------|
 B|-----------------------------------------------------------------|
 G|--4---4--x7---7--x-------x-------x4---4--x7---7--x-------x-------|
 D|--4---4--x7---7--x5---5--x7---7--x4---4--x7---7--x5---5--x7---7--|
 A|--2---2--x5---5--x5---5--x7---7--x2---2--x5---5--x5---5--x7---7--|
 E|---------x-------x3---3--x5---5--x-------x-------x3---3--x5---5--|
     got my  cares..       ..up all..   ..in my suitcase..     ..down the 

 e|-----------------------------------------------------------------|
 B|-----------------------------------------------------------------|
 G|--4---4--x-------x-------x-------x-------------------------------|
 D|--4---4--x7---7--x5---5--x4---4--x2---2--2-2-2-2-4---4--4-4-4-4--|
 A|--2---2--x7---7--x5---5--x4---4--x2---2--2-2-2-2-4---4--4-4-4-4--|
 E|---------x5---5--x3---3--x2---2--x0---0--0-0-0-0-2---2--2-2-2-2--|
     Street..      ..plenty..      ..me                    i am a lone


chorus 2:
guitar 1
 e|-----------------------------------------------------------------|
 B|-----------------------------------------------------------------|
 G|--4---4--x7---7--x-------x-------x4---4--x7---7--x-------x-------|
 D|--4---4--x7---7--x5---5--x7---7--x4---4--x7---7--x5---5--x7---7--|
 A|--2---2--x5---5--x5---5--x7---7--x2---2--x5---5--x5---5--x7---7--|
 E|---------x-------x3---3--x5---5--x-------x-------x3---3--x5---5--|
guitar 2
 e|----------2~------------------------------2~---------------------|
 B|------3~------------------------------3~-------------------------|
 G|-/4~-----------------------------/4~-----------------------------|
 D|-----------------------------------------------------------------|
 A|-----------------------------------------------------------------|
 E|-----------------------------------------------------------------|
     wolf

guitar 1
 e|-------------------------------------------------|
 B|-------------------------------------------------|
 G|--x4---4--x7---7--x------------------------------|
 D|--x4---4--x7---7--x5--5--5-5-5-5--7--7--7-7-7-7--|
 A|--x2---2--x5---5--x5--5--5-5-5-5--7--7--7-7-7-7--|
 E|--x-------x-------x3--3--3-3-3-3--5--5--5-5-5-5--|
guitar 2
 e|-----------2~------------------------------------|
 B|-------3~----------------------------------------|
 G|--/4~--------------------------------------------|
 D|-------------------------------------------------|
 A|-------------------------------------------------|
 E|-------------------------------------------------|


verse 3:
guitar 1
 e|-----------------------------------------------------------------|
 B|-----------------------------------------------------------------|
 G|--4---4--x7---7--x-------x-------x4---4--x7---7--x-------x-------|
 D|--4---4--x7---7--x5---5--x7---7--x4---4--x7---7--x5---5--x7---7--|
 A|--2---2--x5---5--x5---5--x7---7--x2---2--x5---5--x5---5--x7---7--|
 E|---------x-------x3---3--x5---5--x-------x-------x3---3--x5---5--|
     i       am            a lone wolf..           ..people wanna

 e|-----------------------------------------------------------------|
 B|-----------------------------------------------------------------|
 G|--4---4--x-------x-------x-------x-------------------------------|
 D|--4---4--x7---7--x5---5--x4---4--x2---2--2-2-2-2-4---4--4-4-4-4--|
 A|--2---2--x7---7--x5---5--x4---4--x2---2--2-2-2-2-4---4--4-4-4-4--|
 E|---------x5---5--x3---3--x2---2--x0---0--0-0-0-0-2---2--2-2-2-2--|
guitar 2
 e|--------------------------------------------------2---0----------|
 B|----------------------------------------------------------3---2--|
 G|-----------------------------------------------------------------|
 D|-----------------------------------------------------------------|
 A|-----------------------------------------------------------------|
 E|-----------------------------------------------------------------|
     try  to get inside  my  tired   head                   i am a lone


chorus 3:
guitar 1
 e|--------------------------------------------------------------------------------|
 B|--------------------------------------------------------------------------------|
 G|--4---4--x7---7--x-------x-------x4---4--x7---7--x------------------------------|
 D|--4---2--x7---7--x5---5--x7---7--x4---4--x7---7--x5--5--5-5-5-5--7--7--7-7-7-7--|
 A|--2---2--x5---5--x5---5--x7---7--x2---2--x5---5--x5--5--5-5-5-5--7--7--7-7-7-7--|
 E|---------x-------x3---3--x5---5--x-------x-------x3--3--3-3-3-3--5--5--5-5-5-5--|
guitar 2
 e|----------------------------------------0-2-------------------------------------|
 B|--------------------------------------4-----------------------------------------|
 G|--------------------------------------------------------------------------------|
 D|--------------------------------------------------------------------------------|
 A|--------------------------------------------------------------------------------|
 E|--------------------------------------------------------------------------------|
     wolf                  i am a lone wolf


verse 4:
guitar 1
 e|-----------------------------------------------------------------|
 B|-----------------------------------------------------------------|
 G|--4---4--x7---7--x-------x-------x4---4--x7---7--x-------x-------|
 D|--4---4--x7---7--x5---5--x7---7--x4---4--x7---7--x5---5--x7---7--|
 A|--2---2--x5---5--x5---5--x7---7--x2---2--x5---5--x5---5--x7---7--|
 E|---------x-------x3---3--x5---5--x-------x-------x3---3--x5---5--|
guitar 2
 e|----------2~------------------------------2~---------------------|
 B|------3~------------------------------3~-------------------------|
 G|-/4~-----------------------------/4~-----------------------------|
 D|-----------------------------------------------------------------|
 A|-----------------------------------------------------------------|
 E|-----------------------------------------------------------------|
     i       am            a lone wolf..   ..needs        to get too


 e|-----------------------------------------------------------------|
 B|-----------------------------------------------------------------|
 G|--4---4--x-------x-------x-------x-------------------------------|
 D|--4---4--x7---7--x5---5--x4---4--x2---2--2-2-2-2-4---4--4-4-4-4--|
 A|--2---2--x7---7--x5---5--x4---4--x2---2--2-2-2-2-4---4--4-4-4-4--|
 E|---------x5---5--x3---3--x2---2--x0---0--0-0-0-0-2---2--2-2-2-2--|
     close..       ..only    see this truth                i am a


outro:
guitar 1
 e|-----------------------------------------------------------------|
 B|-----------------------------------------------------------------|
 G|--4---4--x7---7--x-------x-------x4---4--x7---7--x-------x-------|
 D|--4---4--x7---7--x5---5--x7---7--x4---4--x7---7--x5---5--x7---7--|
 A|--2---2--x5---5--x5---5--x7---7--x2---2--x5---5--x5---5--x7---7--|
 E|---------x-------x3---3--x5---5--x-------x-------x3---3--x5---5--|
guitar 2
 e|----------2~------------------------------2~---------------------|
 B|------3~------------------------------3~-------------------------|
 G|-/4~-----------------------------/4~-----------------------------|
 D|-----------------------------------------------------------------|
 A|-----------------------------------------------------------------|
 E|-----------------------------------------------------------------|
lone wolf

guitar 1
 e|-----------------------------------------------------------------|
 B|-----------------------------------------------------------------|
 G|--4---4--x7---7--x-------x-------x4---4--x7---7--x-------x-------|
 D|--4---4--x7---7--x5---5--x7---7--x4---4--x7---7--x5---5--x7---7--|
 A|--2---2--x5---5--x5---5--x7---7--x2---2--x5---5--x5---5--x7---7--|
 E|---------x-------x3---3--x5---5--x-------x-------x3---3--x5---5--|
guitar 2
 e|----------2~------------------------------2~---------------------|
 B|------3~------------------------------3~-------------------------|
 G|-/4~-----------------------------/4~-----------------------------|
 D|-----------------------------------------------------------------|
 A|-----------------------------------------------------------------|
 E|-----------------------------------------------------------------|

repeat and fade out


enjoy!


============================================================================
lyrics:

i am a lone wolf
i always was and will be
i feel fine
i am resigned to this
i am a lone wolf
i am a lone wolf

got my cares
wrapped-up all nice and neat
in my suitcase
i'll take it down the street
to a place with plenty of space for me
i am a lone wolf

i am a lone wolf
it blows my mind
that people wanna try to get 
inside my tired head
i am a lone wolf
i am a lone wolf

i am a lone wolf
nobody needs to get too close to me
you'll only see this truth
i am a lone wolf
============================================================================
| /  slide up
| \  slide down
| h  hammer-on
| p  pull-off
| ^  bend
| ~  vibrato
| +  harmonic
| x  mute note
| ¬  palm mute
============================================================================
            
Submit corrections

comments powered by Disqus
↑ Back to top | Eels Tabs for Lone Wolf. Lyrics for acoustic guitar and electric guitar. Tablatures and chords are parodies/interpretations of the original songs. You may use it for private study, scholarship, research or language learning purposes only