» » »

Eels, Last Stop This Town Bass tabs (ver.1)

Artists:  A B C D E F G H I J K L M N O P Q R S T U V W X Y Z # 

Last Stop This Town Bass tabs (ver.1)

Eels Tabs
Rating:
0/5 (0 votes)
Last Stop This Town lessons Tabs too difficult? Try these video lessons and learn fast
                0:41 - 1:17
G|-----------------------------------------------
D|-----------------------------------------------
A|---2-20-02-2---2-20-020-----2-20-02-2---2-20-02
E|0-0---------0-0--------320-0---------0-0-------    2x


1:17 - 2:23
Rest


2:23 - 3:09
G|-------------------------
D|-------------------------
A|---2-20-02-2---2-20-020--
E|0-0---------0-0--------32    5x


And that's all.
            

comments powered by Disqus
↑ Back to top | Eels Bass for Last Stop This Town. Lyrics for acoustic guitar and electric guitar. Tablatures and chords are parodies/interpretations of the original songs. You may use it for private study, scholarship, research or language learning purposes only