» » »

Eels, Last Stop At This Town Tabs (ver.1)

Artists:  A B C D E F G H I J K L M N O P Q R S T U V W X Y Z # 

Last Stop At This Town Tabs (ver.1)

Eels Tabs
Rating:
0/5 (0 votes)
Last Stop At This Town lessons Tabs too difficult? Try these video lessons and learn fast
                


Notes: I just bought the single today (it's got a great version of "novocaine 
for the soul" on it) and i thought i might as well tab it. 
x=mute string.

Riff 1: (the toy piano during the verse)
e|-----------------------------------|
B|------0-------4-------0------------|
G|----1-------4-------1---4--2--1----|
D|--2-------4-------2-------------4--|
A|-----------------------------------|
E|-----------------------------------|
This riff is pretty much repeated through the whole song (listen to the song
to hear where it is and is not played)

Chords: (during, what you would probably call, the chorus)
E B A B
e|--0-------7-------5-------7--------|
B|--0-------7-------5-------7--------|
G|--1-------8-------6-------8--------|
D|--2-------9-------7-------9--------|
A|--2-------9-------7-------9--------|
E|--0-------7-------5-------7--------|
These chords are played at the bit with the wierd voice singing "hey, ya, ye ye
he, ya, ye ye" (the record scratching) 

muted chord riff: 
B A A
e|--x-x-x-x-x-x-x-x-7-5-x-x-x-x-x-x-x-x-5--|
B|--x-x-x-x-x-x-x-x-7-5-x-x-x-x-x-x-x-x-5--|
G|--x-x-x-x-x-x-x-x-8-6-x-x-x-x-x-x-x-x-6--|
D|--x-x-x-x-x-x-x-x-9-7-x-x-x-x-x-x-x-x-7--|
A|--x-x-x-x-x-x-x-x-9-7-x-x-x-x-x-x-x-x-7--|
E|--x-x-x-x-x-x-x-x-7-5-x-x-x-x-x-x-x-x-5--|
This riff is played several times, after the synchro break.

O.K. here's the song lyrics: (and also a guide to where the riffs go, in brakets)

(riff 1 x3)
(riff 1 repeated from here....)
Your dead but the world keeps spinning,
take a spin through the world you've lived,
it's getting dark a little to early,
are you missing the dearly ?? raft.


Take a flight and you could be here tommorow,
take a flight well you could get here tonight,
I,m gonna fly on down for the last stop in this town,
what, i'm gonna fly on down and fly away,
well alright.
(....to here)

(chords played x4)
hey ha ye ye hey ha ye ya,
ha ye ye hey ha ye ya,
taking a spin through the neighbourhood,
the neighbours scream what ya talking about,
'cause i don't know how to let you in,
and i can't let you out.

(other bits that i can't be bothered to tab)
What if i was not your only friend in this world,
can you take me where you're going,
if you're never coming back.


I,m gonna fly on down for the last stop in this town,
i'm gonna fly on down and fly away on my way,

(muted chord riff x6)
hey ha ye ye hey ha ye ya,
ha ye ye hey ha ye ya,
(riff 1 repeated to the chords)
ha ye ye hey ha ye ya,
ha ye ye hey ha ye ya,
When we take a ride away up high through the neighbourhood,
all built of the billboards and the factorys and smoke,
I,m gonna fly on down for the last stop in this town,
yeah, i'm gonna fly on down and fly away on my way.


fly away.

(chords played x2 and riff 1 x2)
hey ha ye ye hey ha ye ya,
ha ye ye hey ha ye ya,
            
Submit corrections

comments powered by Disqus
↑ Back to top | Eels Tabs for Last Stop At This Town. Lyrics for acoustic guitar and electric guitar. Tablatures and chords are parodies/interpretations of the original songs. You may use it for private study, scholarship, research or language learning purposes only