» » »

Eels, Jeannie's Diary Bass tabs (ver.1)

Artists:  A B C D E F G H I J K L M N O P Q R S T U V W X Y Z # 

Jeannie's Diary Bass tabs (ver.1)

Eels Tabs
 Rating:
4/5 (4 votes)
Jeannie's Diary lessons Tabs too difficult? Try these video lessons and learn fast
                Standard Tuning

 Intro (Quietly)
G|--------------------------------------| 
D|--------------------3-----3-----------| 
A|-----------1-----1-----------1--------| 
E|--1-----1-----------------------------| 

G|-----------------------------3--------| 
D|--------------------3-----3-----------| 
A|-----------1-----1--------------------| 
E|--1-----1-----------------------------| 

 Verse
G|-----------------------------| 
D|--3------5------7----5-------| 
A|-----------------------------| 
E|-----------------------------| x2

G|---------------------------------------|
D|--3------5------7----8-----------------|
A|----------------------------3------5---|
E|---------------------------------------|

 Pre Chorus
G|--5----5-/9--7--5-----5---| 
D|------------------5h7-----| 
A|--------------------------|
E|--------------------------| x4

-|--5----5-/9--7--5---| 
-|--------------------| 
-|--------------------| 
-|--------------------| 

 Chorus One
G|---------------------------------| 
D|---------------------------------| 
A|--7--7-7-7--5-5-5-5--7--7--8-----| Hold Note
E|---------------------------------| 

-|--5-----/9--7--5-----5---| 
-|-----------------5h7-----| 
-|-----3-------------------| Hold Note
-|-------------------------|

-|-------------3------------| 
-|--------------------------| 
-|--3-----------------------| Hold Note
-|--------------------------| 


 Verse
G|----------------------------5-/7--5--| 
D|--3------5------7------5-7-----------| 
A|-------------------------------------| 
E|-------------------------------------| 

-|--(5)\--------------------------5----| 
-|---------3-------3-----3-3--5h7------| 
-|-----------3h5-----3h5---------------| 
-|-------------------------------------| 

-|----------------------------5-/7--5--| 
-|--3------5------7------5-7-----------| 
-|-------------------------------------| 
-|-------------------------------------| 

 Play Pre Chorus

 Chorus Two
G|---------------------------------| 
D|---------------------------------| 
A|--7--7-7-7--5-5-5-5--7--7--8-----| Hold Note
E|---------------------------------| 

-|--5-----/9--7--5-----5---| 
-|-----------------5h7-----| 
-|-----3-------------------| Hold Note
-|-------------------------|

-|--------------/9--7--5-----5---| 
-|-----------------------5h7-----| 
-|--3---------3------------------| Hold Note
-|-------------------------------|

 Bridge
G|-------------------------------| 
D|--10--10\7---7/-8---8\-3---3/--| 
A|-------------------------------| 
E|-------------------------------| x4

 Outro
G|--5----5-/9--7--5-----5------5-5-7h9--12-----| 
D|------------------5h7----5h7-----------------| 
A|---------------------------------------------| 
E|---------------------------------------------| 

-|---------/9--7--5-----5--5--5/7--5-----5-----| 
-|--10--10----------5h7---------------7--------| 
-|-----------------------------------------3---| 
-|---------------------------------------------| 

-|-------5-/9--7--5-----5------5-5-7h9--12-----| 
-|------------------5h7----5h7-----------------| 
-|--3------------------------------------------| 
-|---------------------------------------------| 


-|---------/9--7--5-----5------5-5-7h9--12-----| 
-|--10--10----------5h7----5h7-----------------| 
-|---------------------------------------------| 
-|---------------------------------------------| Repeat and Fade
            
Submit corrections

comments powered by Disqus
↑ Back to top | Eels Bass for Jeannie's Diary. Lyrics for acoustic guitar and electric guitar. Tablatures and chords are parodies/interpretations of the original songs. You may use it for private study, scholarship, research or language learning purposes only