» » »

Eels, I Need Some Sleep Tabs (ver.2)

Artists:  A B C D E F G H I J K L M N O P Q R S T U V W X Y Z # 

I Need Some Sleep Tabs (ver.2)

Eels Tabs
 Rating:
4/5 (4 votes)
I Need Some Sleep lessons Tabs too difficult? Try these video lessons and learn fast
                This Is How I Play It, Pretty Simple. Follows along with the Piano.

Intro:

E]--8---5--8--7---3---5---8---3---0--3--5---8---7---3---5---8---7---3--7-|
B]----5---------3---3---5---5---1---------5---5---3---3---5---5---3------|
G]-----------------------------------------------------------------------|
D]-----------------------------------------------------------------------|
A]-----------------------------------------------------------------------|
E]-----------------------------------------------------------------------|


Verse: x2

E]-5---8---7---3--7--5---8---3---0--3---|
B]---5---5---3---------5---5---1--------|
G]--------------------------------------|
D]--------------------------------------|
A]--------------------------------------|
E]--------------------------------------|

Chorus:

E]-5---8---7---3--7--5---8---3---0--3---5---8---7---3--7-----5--------------|
B]---5---5---3---------5---5---1----------5---5---3-------6-------5---------|
G]----------------------------------------------------------5--5----5--7--5-|
D]--------------------------------------------------------------------------|
A]--------------------------------------------------------------------------|
E]--------------------------------------------------------------------------|

E]-----5------------------5-------------|
B]--6-------5----------6-------5------5-|
G]----5--5----5--7--5----5--5----5--7---|
D]--------------------------------------|
A]--------------------------------------|
E]--------------------------------------|

That's basically it, If your a good enough guitar player you should be able to figure 
everything goes.

~~S.W.E.D.~~
            
Submit corrections

comments powered by Disqus
↑ Back to top | Eels Tabs for I Need Some Sleep. Lyrics for acoustic guitar and electric guitar. Tablatures and chords are parodies/interpretations of the original songs. You may use it for private study, scholarship, research or language learning purposes only