» » »

Grace Kelly Blues Bass tabs (ver.1)

Artists:  A B C D E F G H I J K L M N O P Q R S T U V W X Y Z # 

Grace Kelly Blues Bass tabs (ver.1)

Eels
Rating:
0/5 (0 votes)

Hard to play? Try these video lessons and learn fast.
                Standard Tuning

Octaves may be out in places, but tab is mostly right.


 Verse Two (Rest for Most)
G|-----------------------------------| 
D|-----------------------------------| 
A|--3/8---7---5---3---1------3-------| 
E|-----------------------------------| 

 Chorus Two & Three
G|-----------------------------------| 
D|-----------------------------------| 
A|--1----3----0----1----1----3-------| 
E|-----------------------------------| 

G|-----------------------------------| 
D|-----------------------------------| 
A|--8---7---5---3---1-----3--x3h5p3--| 
E|-----------------------------------| 

 Verse Three
G|-----------------------------------| 
D|-----------------------------------| 
A|--8---7---5---3---1-----3--x3h5p3--| 
E|-----------------------------------| 

G|-----------------------------------| 
D|-----------------------------------| 
A|--8---7---5---3---1-----3----------| 
E|-----------------------------------| 

 (No Bass in Horn Interlude)

 Verse Four (Rest for Most)
G|-----------------------------------| 
D|--15--14--12-----12---14h15p14-----| 
A|--------------15-------------------| 
E|-----------------------------------| 

 Chorus Four
G|-----------------------------------| 
D|-----------------------------------| 
A|--1----3----0----1----1----3-------| 
E|-----------------------------------| 

G|--10--9---7---------------------------------| 
D|-------------10--8---10h12p10--10h12p10h14--| 
A|--------------------------------------------| 
E|--------------------------------------------| 

 Verse Five
G|-----------------------------------| 
D|--15--14--12-----------------------| 
A|--------------15--13---15h17p15----| 
E|-----------------------------------| x2

 Chorus Five
G|-----------------------------------| 
D|-----------------------------------| 
A|--13---15---12----13----13----15---| 
E|-----------------------------------| 

G|--10--9--7---------------------------------| 
D|------------10--8---10h12p10--10h12p10h14--| 
A|-------------------------------------------| 
E|-------------------------------------------| 


G|--10--9--7------------------------| 
D|------------10---8-8---10h12p10---| 
A|----------------------------------| 
E|----------------------------------| 

G|----------------------------------------| 
D|----------------------------------------| 
A|--8---7---5---3---1-1---3h5p3--3h5p3h7--| 
E|----------------------------------------| 

 Repeat Above Two Riffs and Fade
            
Hard to play? Try these video lessons and learn fast. | Correct




comments powered by Disqus
↑ Back to top | Tablatures and chords are parodies/interpretations of the original songs. You may use it for private study, scholarship, research or language learning purposes only