» » »

Eels, Gone Man Tabs (ver.1)

Artists:  A B C D E F G H I J K L M N O P Q R S T U V W X Y Z # 

Gone Man Tabs (ver.1)

Eels Tabs
Rating:
0/5 (0 votes)
Hard to play? Try these video lessons and learn fast.
                Eels-Gone Man

Key:
b-Bend
p-Pull-Off
h-Hammer On

Intro Riff

E||--------------------------------------------------|
B||--------------------------------------------------|
G||----2----2b----2p0----2----0----------------------|
D||----2---------------------------2----2p0----2h----|
A||----0---------------------------------------------|
E||--------------------------------------------------|



Verse 1

A
She used to love me but it's over now,
E                                    A
that was a good thing that's gone man gone.
A
I pass the hours just getting by,
E                         A
talk to the dog so i know that I'm alive.

Chorus

C       D                            A
I never thought that I should quit,
C       D                F            C
all the stupid crazy sh*t that I do
E                         A
in the name of keeping good things away.

Verse 2

A
Some things you can f**k right up,
E                               A
other things, well you'd better not screw up.
A
My problem was that I could not see,
E                         A
what was important right in front of me.

Chorus

C       D                            A
I never thought that I should quit,
C       D                F            C
all the stupid crazy sh*t that I do
E                            A
in the name of keeping good things away.

Bridge - Palm Muted (Except Last Line)

A
How much longer man for this earth,
E                              A
it's here today but soon gone man gone.
A
The epitaph scratched upon my stone:
E                          A
here lies a man who just wanted to be alone.

C       D                            A
C       D                F            C

Verse 3

A
She used to love me but it's over now,
E                                    A
that was a good thing that's gone man gone.
A
I take small comfort in a dying world,
E                         A
I'm not the only one who's feeling this pain.

Outro Solo

Play the intro riff over the solo.

E||--------------------------------------------------|
B||--------------------------------------------------|
G||----2----2b----2p0----2----0----------------------|
D||----2---------------------------2----2p0----2h----|
A||----0---------------------------------------------|
E||--------------------------------------------------|
            

comments powered by Disqus
↑ Back to top | Eels Tabs for Gone Man. Lyrics for acoustic guitar and electric guitar. Tablatures and chords are parodies/interpretations of the original songs. You may use it for private study, scholarship, research or language learning purposes only