» » »

Friendly Ghost Bass tabs (ver.1)

Artists:  A B C D E F G H I J K L M N O P Q R S T U V W X Y Z # 

Friendly Ghost Bass tabs (ver.1)

Eels
Rating:
4/5 (1 vote)

Hard to play? Try these video lessons and learn fast.
                Difficulty: Medium
Tuning: Standard (G-D-A-E)

The bass comes in 4 bars in.  Good Luck!

Verse 1:
G|-0-0-0---------00------------|
D|-------43-3-3-3--------0-002-|
A|------------------3-3-3------|
E|-----------------------------|

Verse 2:
G|-------2-----0-0-0-4-0-|
D|-3-3-3---3-------------|
A|-----------------------|
E|-----------------------|

Verse 3:
G|-----------|
D|-3-33-4-44-|
A|-----------|
E|-----------|

Order
Verse 1(x2)
Verse 2(x2)
Verse 3(x1)
Verse 1(x5)
Verse 2(x2)
Verse 3(X1)
Verse 1(x7)
Verse 2(x2)
Verse 3(x1)
Verse 1(x Until Fade Out)

Congratulations!

Any Questions, Comments, Complaints, Threats please E-Mail me at
            
Hard to play? Try these video lessons and learn fast. | Correct




comments powered by Disqus
↑ Back to top | Tablatures and chords are parodies/interpretations of the original songs. You may use it for private study, scholarship, research or language learning purposes only