» » »

Eels, Fresh Blood Tabs (ver.1)

Artists:  A B C D E F G H I J K L M N O P Q R S T U V W X Y Z # 

Fresh Blood Tabs (ver.1)

Eels Tabs
4/5 (6 votes)
Fresh Blood lessons Tabs too difficult? Try these video lessons and learn fast
                Band: Eels
Tuning: Standard

Main Bass Riff that plays through the whole song:

G: ---------------------------:
D: ---------------------------:
A: --------------12----10-----:
E: ---10----13----------------:

Riff A:

e: ----------------------------:
B: ----------------------------:
G: ----------------------------:
D: ----------------------------:
A: -10-10-10-12----10----------:
E: -------------10-------------:

Riff B (The fast bit with all the howling):

e: ---------------------------------------------------------------------:
B: ---------------------------------------------------------------------:
G: ---------------------------------------------------------------------:
D: -----------------------------------------------14-14-14-14-14-14-14--:
A: -12-12-12-12-12-12-12---15-15-15-15-15-15-15---12-12-12-12-12-12-12--:
E: -10-10-10-10-10-10-10---13-13-13-13-13-13-13-------------------------:

e: ------------------------:
B: ------------------------:
G: ------------------------:
D: -12-12-12-12-12-12-12---:
A: -10-10-10-10-10-10-10---:
E: ------------------------:

Riff C (plays over the second verse and continues on and off for rest of the song):

e: --10-------10-------10-------12-10---:
B: --10-------10-------10-------10-10---:
G: --10-------10-------10-------10-10---:
D: --12-------12-------12-------12-12---:
A: -------------------------------------:
E: -------------------------------------:

The whole thing is in Dm.  I'm pretty sure that it's correct.  Enjoy.
Submit corrections

comments powered by Disqus
↑ Back to top | Eels Tabs for Fresh Blood. Lyrics for acoustic guitar and electric guitar. Tablatures and chords are parodies/interpretations of the original songs. You may use it for private study, scholarship, research or language learning purposes only