» » »

Eels, For You Tabs (ver.1)

Artists:  A B C D E F G H I J K L M N O P Q R S T U V W X Y Z # 

For You Tabs (ver.1)

Eels Tabs
Rating:
0/5 (0 votes)
For You lessons Tabs too difficult? Try these video lessons and learn fast
                
Eels
Tomorrow morning
For you
2010





                                                       chords

  C         F    C             F                    C/E  F/D  Ab  G  
E:----------------------------------------|      E  x    x    x   x
B:-------15-17-----20-17-15---------------|      B  1    1    13  12
G:---17--------------------14-14----------|      G  0    2    13  12
D:----------------------------------------|      D  2    3    13  12
A:----------------------------------------|      A  3    3    11  10
E:----------------------------------------|      D  2    0    x   x


C  F  C/E  F/D

C            F
Where do you go when
C/E        
The day is done
F/D
But you are not?
C              F
You look for a friend, but
C/E
Maybe I'm
F/D
All you got

Ab            G           C
Hard to pretend that I've always been here
Ab       G         
Ready to be your man

C  F  C/E  F/D

C           F
And I heard sounds
C/E
Comin' through
F/D
The bedroom wall
C         F
Somebody cryin'
C/E
Echoin'
F/D
Down the hall

Ab         G             C
Never knew what it is to be a man
Ab         G          C   F
But now I know that I can

C/E      F/D          C   F
It's all here for you
C/E      F/D
It's all here for you

C   F   C/E  F/D

C                F
And when you need me
C/E
You know that I'm
F/D
Always here
C               F 
It's not gonna be like
C/E
It ever was
F/D
Before, my dear

Ab       G                C
Hard to believe the dyin' words of a lyin' man
Ab             G
But that's not me
       
Here I am

     C    F     C/E  F/D     C    F     C/E      F/D
E:-----------------------------------------------------------------|
B:-----------------------------------------------------------------|
G:--------10----9-----------------10----9--------------------------|
D:---10--------------12------10------------------12----(10)--------|
A:-----------------------------------------------------------------|
E:-----------------------------------------------------------------|
           
E:-----------------------------------------------------------------|
B:-----------------------------------------------------------------|
G:-----------------------------------------9-12--10--9--7--5-------|
D:-----------------------------------------------------------------|
A:-----------------------------------------------------------------|
E:-----------------------------------------------------------------|
                  It's all here for you
                                          It's all here for you     

     C    F     C/E    F/D         C        F        C/E     F/D C
E:-----------------------------------------------------------------|
B:-----------------------------------------------------------------|
G:--------10----9-----------9----------9-------10-------9----------|
D:---10----------------12------12--10----10------10--10---12-12-10-|
A:------------------------------------------12---------------------|
E:-----------------------------------------------------------------|

E:-----------------------------------------------------------------|
B:-----------------------------------------------------------------|
G:-----------------9-12--10----------------------------------------|
D:-----------------------------------------------------------------|
A:-----------------------------------------------------------------|
E:-----------------------------------------------------------------|
            

comments powered by Disqus
↑ Back to top | Eels Tabs for For You. Lyrics for acoustic guitar and electric guitar. Tablatures and chords are parodies/interpretations of the original songs. You may use it for private study, scholarship, research or language learning purposes only