>
 >
Dog Faced Boy 1

Dog Faced Boy 1 Guitar Tabs

Eels - Dog Faced Boy 1 chords, tabs, tablatures, lyrics

Guitar lessons | Add/correct | Request | Top 50 tabs Artists:  A B C D E F G H I J K L M N O P Q R S T U V W X Y Z 0-9

Dog Faced Boy 1 Guitar Tabs – Eels

CD, Sheet music, Poster

Do you like Dog Faced Boy 1? Share with your friends now
Bass TabsTabsTabs v2
minutes, hours, days is spend at this song and I think I found it
If you find any mistakes mail me
please, rate...

verse:

coming home from the school today...

...life ain't pretty for a dog faced boy...

E----------------------------|
B----------------------------|
G----------------------------| (repeat)
D--0--5--7-7---7--0--5-5--0--|
A--2--5--7-7---7--0--5-5--2--|
E--0--3--5-5---5--0--3-3--0--|

chorus:

ma won't shave me
jesus can't save me
dog faced boy

E------------------------------------------|
B------------------------------------------|
G------------------------------------------|
D--9--9--9-9---7--7--7-7---2--4--5-4-2--7--|
A--9--9--9-9---7--7--7-7---2--4--5-4-2--7--|
E--7--7--7-7---5--5--5-5---0--2--3-2-0--5--|

my opinion?
this song is COOL!!





Comments


Popular Eels tabs & chords
I Need Some Sleep 1 Chords
Ps You Rock My World Chords
Railroad Man Chords
Things The Grandchildren Should Know 2 Chords
Gone Man Tabs
I Like Birds 1 Tabs
Grace Kelly Blues Ukulele
Lone Wolf Ukulele
Novocaine For The Soul Ukulele
Unhinged Ukulele


Song lyrics



↑ Back to top | Tablatures and chords are parodies/interpretations of the original songs. You may use it for private study, scholarship, research or language learning purposes only
© 2014 AZChords.com Contact us | Privacy policy | DMCA | Add/correct tabs | Request tabs | Top 50 tabs