» » »

Beautiful People Tabs (ver.1)

Artists:  A B C D E F G H I J K L M N O P Q R S T U V W X Y Z # 

Beautiful People Tabs (ver.1)

Eels
Rating:
0/5 (0 votes)

Hard to play? Try these video lessons and learn fast.
                INTRO
  h    q  q  q  h    q  h    h    q  q 

e-----------------------------------------|
B------1---------------------1------------|
G---------2-----0-------2---------2-------|
D-3----------0-------2---------------2----|
A-----------------------------------------|
E-----------------------------------------|

  q  q  q  q  q  h    q  q  h    h    h

e--------------------------------0--------|
B-------1---------------------------------|
G----2-----2-----0----------2---------2---|
D-3-----------0-------0--2----------------|
A-----------------------------------------|
E-----------------------------------------|


VERSE

Fig 1
      F            G           Am
e-------------------------------------------
B-------1-----------0-------------1---------
G----2-----2-----0-----0-----2------------2-
D-3-----------0-----------2------------2----
A-------------------------------------------
E-------------------------------------------

He plays this once, and then starts sort of picking and strumming...
you should listen to get the feel for it.

Lyrics

Are you one of the beautiful people
Is my name on your list
Want be of the beautiful people
Wanna feel like I'm missed

Hey you with the walkie talkie
I know my clothes are not right
I wish I had my own walkie talkie
That reached to God every night

Chorus

G                  F
Everyone needs to be somebody
G                   F(stop strumming)     back to Fig 1
Everyone needs to find someone who cares

But I dont know if I know what I mean cause I'm
Never on your list


(Harmonica solo)

Are you one of the beautiful people
Am I on the wrong track
Sometimes it feels like I made of eggshells
And it feels like I'm gonna crack

G                  F
Everyone needs to be somebody
G                   F(stop strumming)     back to Fig 1
Everyone needs to find someone who cares

But I dont know if I know what I mean cause I'm
Never on your list
Never on your list
Never on your list

Fade to black...

Cool song from an interesting group... enjoy!
SpiceKing

"I drink and I smash because I love." Rocko
            
Hard to play? Try these video lessons and learn fast. | Correct




comments powered by Disqus
↑ Back to top | Tablatures and chords are parodies/interpretations of the original songs. You may use it for private study, scholarship, research or language learning purposes only