» » »

Eels, All In A Days Work Tab Tabs (ver.1)

Artists:  A B C D E F G H I J K L M N O P Q R S T U V W X Y Z # 

All In A Days Work Tab Tabs (ver.1)

Eels Tabs
 Rating:
4/5 (4 votes)
All In A Days Work Tab lessons Tabs too difficult? Try these video lessons and learn fast
1
                All In A Days Work by EELS
(album SHOOTENANNY)

well i guess im the first one ever to tab a SHOOTENANNY song..
 figures, the album isn't out yet..:)
(listen to the song for the correct timing.)


chorus chords : G 320001
                C 032010
                A 002220
   
intro
x--------------------------
x--------------------------
x-2 (pull tremelo bar)--2-0
x--------------------------
x--------------------------
x--------------------------
 
riff 1 :(might be some variation in it)
x---------------------  
x---------------------
x---------------------  play 5 times
x2-2-2--2-0--5-5-5---- 
x2-2-2-----4-3-3-3-3-2
x---------------------

ening before chorus :
                   x-------
                   x-------
same as riff one + x-------
                   x-------
		   x-(3-2)-
		   x-----3-

chorus:

G - C - A - C

after chorus 1:
x-----------
x-----------    
x-2--2-1-0-4     than riff 1 x4
x-----------
x-----------
x-----------

chorus x3

SOlo:
x-3-7-7-3-5-3---3-5-3-5-3-7-5-3
x------------------------------
x------------------------------
x------------------------------
x------------------------------
x------------------------------

repeat riff 1 and fade out
            
Submit corrections

comments powered by Disqus
↑ Back to top | Eels Tabs for All In A Days Work Tab. Lyrics for acoustic guitar and electric guitar. 1 Tablatures and chords are parodies/interpretations of the original songs. You may use it for private study, scholarship, research or language learning purposes only