» » »

Eels, A Daisy Through Concrete Bass tabs (ver.1)

Artists:  A B C D E F G H I J K L M N O P Q R S T U V W X Y Z # 

A Daisy Through Concrete Bass tabs (ver.1)

Eels Tabs
 Rating:
4/5 (4 votes)
A Daisy Through Concrete lessons Tabs too difficult? Try these video lessons and learn fast
                Standard Tuning


 Intro
G|---------------------------------| 
D|---------------------------------| 
A|--8---8---6---6--x8---8--x6---6--| 
E|----8-------6-------8-------6----| 

 Verse
G|---------------------------------| 
D|---------------------------------| 
A|--8---8---6---6--x5---5--x6---6--| 
E|----8-------6-------5-------6----| x3

 Chorus
G|---------------------------------| 
D|---------------------------------| 
A|--8---8---5---5---4---4---1---1--| 
E|----8-------5-------4-------1----| x2

-|-----------------------------------------| 
-|-----------------10--10--10h12p10--------| 
-|--8---8---5---5-------------------12-10--| 
-|----8-------5----------------------------| 

 Interlude: Verse x2
	    Whole Chorus x1
	   (Verse x1)

 Last Chorus
G|---------------------------------| 
D|---------------------------------| 
A|--8---8---5---5---4---4---1---1--| 
E|----8-------5-------4-------1----| x2

-|-----------------------------------------| 
-|-----------------10--10--10h12p10--------| 
-|--8---8---5---5-------------------12-10--| 
-|----8-------5----------------------------| 

-|---------------------------------| 
-|---------------------------------| 
-|--8---8---5---5---4---4---1---1--| 
-|----8-------5-------4-------1----| x4

-|---------------------------------| 
-|---------------------------------| 
-|--8------------------------------| Hold Note
-|---------------------------------| 
            
Submit corrections

comments powered by Disqus
↑ Back to top | Eels Bass for A Daisy Through Concrete. Lyrics for acoustic guitar and electric guitar. Tablatures and chords are parodies/interpretations of the original songs. You may use it for private study, scholarship, research or language learning purposes only