>
 >
Searching For The Truth

Searching For The Truth Guitar Tabs

Edwyn Collins - Searching For The Truth chords, tabs, tablatures, lyrics

Guitar lessons | Add/correct | Request | Top 50 tabs Artists:  A B C D E F G H I J K L M N O P Q R S T U V W X Y Z 0-9

Searching For The Truth Guitar Tabs – Edwyn Collins

CD, Sheet music, Poster

Do you like Searching For The Truth? Share with your friends now
Tabs
---------------------------------------------------------------------------
---------------------------------------------------------------------------
Tuning: Standard

Edwyn Collins 
Searching for the Truth (2010)
(Collins)


INTRO
              A
e|----------------|
B|----------------|
G|------------2---|
D|----------------|
A|----------------|
E|----------------|
  A                F#m              A                F#m
e|--0-----0-----2-|------2---------|--0-----0-----2-|------2---------|
B|2-----2-----2---|--2-------2-----|2-----2-----2---|--2-------2-----|
G|----------------|----2-------2---|----------------|----2-------2---|
D|----------------|----------------|----------------|----------------|
A|0-------0-------|----------------|0-------0-------|----------------|
E|----------------|2-------2-------|----------------|0-------0-------|

VERSE 1
  A                F#m              A                F#m
e|--0-----0-----2-|------2---------|--0-----0-----2-|------2---------|
B|2-----2-----2---|--2-------2-----|2-----2-----2---|--2-------2-----|
G|----------------|----2-------2---|----------------|----2-------2---|
D|----------------|----------------|----------------|----------------|
A|0-------0-------|----------------|0-------0-------|----------------|
E|----------------|2-------2-------|----------------|0-------0-------|
  D6      D        D(add 9)         A                F#m
e|7-------2-------|5-----0---------|0-----0-------2-|------2---------|
B|--7-------3-----|--7-------7-----|--2-------2-----|--2-------2-----|
G|----7-------2---|----7-------7---|----2-------2---|----2-------2---|
D|0-------0-------|0-------0-------|----------------|----------------|
A|----------------|----------------|0-------0-------|----------------|
E|----------------|----------------|----------------|2-------2-------|
  D6      D        D(add 9)         A                F#m
e|7-------2-------|5-----0---------|0-----0-------2-|------2---------|
B|--7-------3-----|--7-------7-----|--2-------2-----|--2-------2-----|
G|----7-------2---|----7-------7---|----2-------2---|----2-------2---|
D|0-------0-------|0-------0-------|----------------|----------------|
A|----------------|----------------|0-------0-------|----------------|
E|----------------|----------------|----------------|2-------2-------|

MIDDLE 8
  Dmaj7                             A                A(add9)  A
e|2-----2---------|2-----2---------|0-----0---------|0-----0---------|
B|--2-------2-----|--2-------2-----|--2-------2-----|--0-------2-----|
G|----2-------2---|----2-------2---|----2-------2---|----2-------2---|
D|0-------0-------|0-------0-------|----------------|----------------|
A|----------------|----------------|0-------0-------|-0-------0------|
E|----------------|----------------|----------------|----------------|
  Dmaj7                             A                E       E6
e|2-----2-------5-|------2---------|0-----0---------|0-----0---0---0-|
B|--2-------2-----|--2-------2-----|--2-------2-----|--0----0h2------|
G|----2-------2---|----2-------2---|----2-------2---|----1-------1---|
D|0-------0-------|0-------0-------|----------------|----------------|
A|----------------|----------------|0-------0-------|----------------|
E|----------------|----------------|----------------|0-------0-------|
  E7
e|--0---0---------|
B|/3--------3-----|
G|----4-------4---|
D|----------------|
A|----------------|
E|0-------0-------|

SOLO
  A                F#m              A                F#m
e|--0-----0-----2-|------2---------|--0-0---0---0-2-|------2---------|
B|2-----2-----2---|--2-------2-----|2-2-2-2-2-2-2-2-|--2-------2-----|
G|----------------|----2-------2---|2-----2---2-----|----2-------2---|
D|----------------|----------------|----------------|----------------|
A|0-------0-------|----------------|0-------0-------|----------------|
E|----------------|2-------2-------|----------------|0-------0-------|
  D6      D        D(add 9)         A                F#m
e|--7-----2-------|5-----0---------|0-------------2-|------2---------|
B|----7-----3-----|--7-------7-----|--2---0h2-2-----|--2-------2-----|
G|------------2---|----7-------7---|----2-------2---|----2-------2---|
D|0-------0-------|0-------0-------|----------------|----------------|
A|----------------|----------------|0-------0-------|----------------|
E|----------------|----------------|----------------|2-------2-------|

VERSE 2
  A                F#m              A                F#m
e|--0-----0-----2-|------2---------|--0-----0-----2-|------2---------|
B|2-----2-----2---|--2-------2-----|2-----2-----2---|--2-------2-----|
G|----------------|----2-------2---|----------------|----2-------2---|
D|----------------|----------------|----------------|----------------|
A|0-------0-------|----------------|0-------0-------|----------------|
E|----------------|2-------2-------|----------------|0-------0-------|
  D6      D        D(add 9)         A                F#m
e|7-------2-------|5-----0---------|0-----0-------2-|------2---------|
B|--7-------3-----|--7-------7-----|--2-------2-----|--2-------2-----|
G|----7-------2---|----7-------7---|----2-------2---|----2-------2---|
D|0-------0-------|0-------0-------|----------------|----------------|
A|----------------|----------------|0-------0-------|----------------|
E|----------------|----------------|----------------|2-------2-------|
  D6      D        D(add 9)         A                F#m
e|7-------2-------|5-----0---------|0-----0-------2-|------2---------|
B|--7-------3-----|--7-------7-----|--2-------2-----|--2-------2-----|
G|----7-------2---|----7-------7---|----2-------2---|----2-------2---|
D|0-------0-------|0-------0-------|----------------|----------------|
A|----------------|----------------|0-------0-------|----------------|
E|----------------|----------------|----------------|2-------2-------|

OUTRO
  D6               E6               A                F#m
e|7-----7---------|9-----9---------|0-----0---------|2-----2---------|
B|--7-------7-----|--9-------9-----|--2-------2-----|--2-------2-----|
G|----7-------7---|----9-------9---|----2-------2---|----2-------2---|
D|0-------0-------|----------------|----------------|----------------|
A|----------------|7-------7-------|0-------0-------|----------------|
E|----------------|----------------|----------------|2-------2-------|
  A                F#m              A                F#m
e|0-----0---------|2-----2---------|0-----0---------|2-----2---------|
B|--2-------2-----|--2-------2-----|--2-------2-----|--2-------2-----|
G|----2-------2---|----2-------2---|----2-------2---|----2-------2---|
D|----------------|----------------|----------------|----------------|
A|0-------0-------|----------------|0-------0-------|----------------|
E|----------------|2-------2-------|----------------|2-------2-------|
                                    (harp)
  A                F#m              A                F#m
e|0-----0---------|2-----2---------|0-----0---------|2-----2---------|
B|--2-------2-----|--2-------2-----|--2-------2-----|--2-------2-----|
G|----2-------2---|----2-------2---|----2-------2---|----2-------2---|
D|----------------|----------------|----------------|----------------|
A|0-------0-------|----------------|0-------0-------|----------------|
E|----------------|2-------2-------|----------------|2-------2-------|
  (harp)                            (harp)
  A                F#m              A                F#m
e|0-----0---------|2-----2---------|0-----0-------2-|------2---------|
B|--2-------2-----|--2-------2-----|--2-------2-----|--2-------2-----|
G|----2-------2---|----2-------2---|----2-------2---|----2-------2---|
D|----------------|----------------|----------------|----------------|
A|0-------0-------|----------------|0-------0-------|----------------|
E|----------------|2-------2-------|----------------|2-------2-------|
  (harp)                            (harp)
  
e|----------------|
B|----------------|
G|2---------------|
D|2---------------|
A|0---------------|
E|----------------|

---------------------------------------------------------------------------


INTRO
| A | F#m | A | F#m |

    A                 F#m
I'm searching for the truth
    A                 F#m
I'm searching for the truth
D6   D     D(add9)
Some sweet day 
      A                F#m
We'll get there in the end
D6   D     D(add9)
Some sweet day 
      A                F#m
We'll get there in the end

Dmaj7
  And I will always be
A
Lucky in my life
Dmaj7
  And I will always try 
   A
To get there
   E          E6   E7
To get there

SOLO
| A | F#m | A | F#m |
| D6 D | D(add9) | A | F#m |

    A                 F#m
I'm searching for the truth
    A                 F#m
I'm praying for the truth
D6   D     D(add9)
Some sweet day 
      A                F#m
We'll get there in the end
D6   D     D(add9)
Some sweet day 
      A                F#m
We'll get there in the end
D6   E6   | A | F#m | A | F#m |
Some sweet day        

OUTRO
| A | F#m | A | F#m |
(harp)
| A | F#m | A | F#m | 
(harp)
| A | F#m | A
(harp)





Comments


Popular Edwyn Collins tabs & chords
A Girl Like You 2 Bass Tabs
Never Met A Girl Like You Before Bass Tabs
Losing Sleep Chords
North Of Heaven Chords
A Girl Like You Tabs
Girl Like You Tabs
Home Again Tabs
Never Met A Girl Like You Before 1 Tabs
Never Met A Girl Like You Before 4 Tabs
Never Met A Girl Like You Before Version 2 Intro Tabs


Song lyrics



↑ Back to top | Tablatures and chords are parodies/interpretations of the original songs. You may use it for private study, scholarship, research or language learning purposes only
© 2014 AZChords.com Contact us | Privacy policy | DMCA | Add/correct tabs | Request tabs | Top 50 tabs