» » »

A Girl Like You Bass tabs (ver.2)

Artists:  A B C D E F G H I J K L M N O P Q R S T U V W X Y Z # 

A Girl Like You Bass tabs (ver.2)

Edwyn Collins
Rating:
0/5 (0 votes)

Tabs too difficult? Try these video lessons and learn fast.
                G|------8---10--10b--8----------------8-----15--12-------------------------|
D|--10-----------------10------10-10---------------------------------------|
A|-------------------------------------------------------------------------|
E|-------------------------------------------------------------------------|


G|------8---10--10b--8----------------7------------------------------------|
D|--10-----------------10------10-10-------8--10---------------------------|
A|-------------------------------------------------------------------------|
E|-------------------------------------------------------------------------|


cheers...
            
Tabs too difficult? Try these video lessons and learn fast.




comments powered by Disqus
↑ Back to top | Tablatures and chords are parodies/interpretations of the original songs. You may use it for private study, scholarship, research or language learning purposes only