>
 >
Letter To My Mother

Letter To My Mother Chords

Edwin Mccain - Letter To My Mother chords, tabs, tablatures, lyrics

Guitar lessons | Add/correct | Request | Top 50 tabs Artists:  A B C D E F G H I J K L M N O P Q R S T U V W X Y Z 0-9

Letter To My Mother Chords – Edwin Mccain

CD, Sheet music, Poster

Do you like Letter To My Mother? Share with your friends now
ChordsUkulele
-------------------------------------------------------------------------------
                    "Letter To My Mother" by Edwin McCain
                        From the album "Far From Over"
-------------------------------------------------------------------------------



**Open D Tuning**


Chords used:

     D    C#m6   C     G   Bm7  F#m7  Em7   A    D  Em7/11  F#m7/11  G/Bb
D |--0-----0-----0-----0----0----0-----0----0----0-----0--------0------0--|
A |--0-----0-----0-----0----0----0-----0----0----0-----0--------0------0--|
F#|--12----10----10----5----8----3-----1----7----0-----1--------3------1--|
D |--0-----0-----0-----0----0----0-----0----0----0-----2--------4------0--|
A |--0-----0-----0-----0----9----4-----0----0----0-----2--------4------1--|
D |--12----11----10----5----9----4-----2----7----0----(2)------(4)-----0--|


*Note: These may not be the actual chord names but they're pretty close.  The Em7/11 and 
F#m7/11 chords can be played with or without the note in ().  I think they sound better 
with them but I believe Edwin plays without.


Intro Riff:

     D                          C#m6                        C                           G
D |--0---0----0--0--0--0---0----0---0----0--0--0--0---0-----0---0----0--0--0--0---0-----0---|
A |--0---0----0--0--0--0---0----0---0----0--0--0--0---0-----0---0----0--0--0--0---0-----0---|
F#|--12--12---12-12h13-12--12---10--10---10-10h12-10--10----10--10---10-10h12-10--10----5---|
D |--0---0----0--0--0--0---0----0---0----0--0--0--0---0-----0---0----0--0--0--0---0-----0---|
A |--0---0----0--0--0--0---0----0---0----0--0--0--0---0-----0---0----0--0--0--0---0-----0---|
D |--12--12---12-12-12-12--12---11--11---11-11-11-11--11----10--10---10-10-10-10--10----5---|



Intro:  (Play Intro Riff) x2


Verse 1:

D              C#m6
Mama, how do I write the words to you
             C            G
You were the only one who loved me true
              D             C#m6
But there's a woman that we don't even know
            C              G
She gave me life, then you gave me a home


Chorus 1:

            Bm7
I love you, Mama
              F#m7
But I want to tell her too
            Em7        G     A     (Repeat Intro Riff)
Is that her little boy still loves you


Verse 2:

           D              C#m6
I close my eyes, does she look like me
         C                    G
Does she need my help, is she cold on the street
           D             C#m6
Or am I forgotten like a bad childhood dream
  C                    G
A B-movie actor on the black and white screen


Chorus 2:

            Bm7
I love you, Mama
              F#m7
But I want to tell her too
            Em7        G     A     D
Is that her little boy still loves you
            Em7        G     A     D
Is that her little boy still loves you


Bridge:

Em7/11                  F#m7/11
 Could I have seen her, I'll never know
            Em7/11            F#m7/11
Maybe she's always been there watching me grow
            Em7/11       F#m7/11
I wanted to tell her how grateful I am
              G                   G/Bb
For giving me life, I've done the best that I can


Solo:

(Repeat Intro Riff) then

D     C#m6
Ohhhh ohhhhh

C     G
Ohhhh yeah


Chorus 3:

            Bm7
I love you, Mama
              F#m7
But I want to tell her too
            Em7        G     A     D
Is that her little boy still loves you
    Em7        G     A     D
Her little boy still loves you


Outro:  Em7 - G - A - D





Comments


Popular Edwin Mccain tabs & chords
I Could Not Ask For More 2 Chords
I Want It All Chords
Ill Be 5 Chords
Jesters, Dreamers, And Thieves Chords
White Crosses Chords
How Strange It Seems Tabs
Fairwell To Tinkerbell Ukulele
Go Be Young Ukulele
Kiss Ukulele
Promise Of You Ukulele


Song lyrics



↑ Back to top | Tablatures and chords are parodies/interpretations of the original songs. You may use it for private study, scholarship, research or language learning purposes only
© 2014 AZChords.com Contact us | Privacy policy | DMCA | Add/correct tabs | Request tabs | Top 50 tabs