>
 >
Ill Be 3

Ill Be 3 Guitar Tabs

Edwin Mccain - Ill Be 3 chords, tabs, tablatures, lyrics

Guitar lessons | Add/correct | Request | Top 50 tabs Artists:  A B C D E F G H I J K L M N O P Q R S T U V W X Y Z 0-9

Ill Be 3 Guitar Tabs – Edwin Mccain

CD, Sheet music, Poster

Do you like Ill Be 3? Share with your friends now
ChordsTabs
-----------------------
I'll Be - Edwin McCain
-----------------------
standard tuning



i transposed this tab from the way i think it sounds on the
trombone so it might not be perfect, but it sounds
pretty darn close

Legend: 
Above the notes I have written the duration:
s=sixteenth, e=eighth, q=quarter, h=half, w=whole
if there is a dot after the designated note then
it is a dotted note: play one and a half times the
value of the note
For instance, q. is played as the duration of a
quarter note and an eighth note (half the value) together

i have also marked spots where slurs and ties occur
slurs can be accomplished by either pulls and hammer-ons or slides
ties are simply allowing the note to ring

some slurs and ties carry over measures,so watch the places i have marked carefully

  3/4 Time
                    slur             tie       tie     slur
   e        q q q   q-q. q s e   q e e-q   q e e-q   q e-e.s e
e|---||r|  -------|------------|---------|---------|-----------|
B|---||e|  -3-1---|------r-r---|-4-3-1t1-|-3-3-3t3-|-3-----r---|
G|---||p|* -----3-|-3p0--e-e-0-|---------|---------|---5/3-e-0-|
D|-3-||e|* -------|------s-s---|---------|---------|-------s---|
A|---||a|  -------|------t-t---|---------|---------|-------t---|
E|---||t|  -------|------------|---------|---------|-----------|

     tie     tie                                    tie
   q.e-q   e e-h   q q e e   q q q   q q q   q q e e---e q.q
e|-------|-------|---------|-------|-------|---------|-------|
B|---1t1-|-1-----|-r-r-r---|-3-1---|-----r-|-4-3-1-3-|-3-1-r-|
G|-3-----|---3t3-|-e-e-e---|-----3-|-3-0-e-|---------|-----e-|
D|-------|-------|-s-s-s-3-|-------|-----s-|---------|-----s-|
A|-------|-------|-t-t-t---|-------|-----t-|---------|-----t-|
E|-------|-------|---------|-------|-------|---------|-------|

      slur       tie     tie                               tie
   q q e-e   q e e-q   e e-h   q q s e.  h.  q q s e.  q e.e-e e.
e|---------|---------|-------|---------|-1-|---------|-----------|
B|-3-1-----|-----1t1-|-1-----|-r-r-r---|---|-3-r-r---|-4-3-1t1---|
G|-----3p0-|-3-3-----|---3t3-|-e-e-e-3-|---|---e-e-0-|---------3-|
D|---------|---------|-------|-s-s-s---|---|---s-s---|-----------|
A|---------|---------|-------|-t-t-t---|---|---t-t---|-----------|
E|---------|---------|-------|---------|---|---------|-----------|

     s l u r
       tie       slur                      slur         slur tie
   q e-e-e-e   q e-e-q   q q e e   e q e e e-/-q-q s e.  s-q e-e e.
e|-----------|---------|---------|-----------|---------|-----------|
B|-3-3/1t1/3-|-r-------|-r-r-1---|-1-1-------|-----r---|-3/1-------|
G|-----------|-e-3/5/7-|-e-e---3-|-----5/3-7-/-5/3-e-3-|-----3t3-0-|
D|-----------|-s-------|-s-s-----|-----------|-----s---|-----------|
A|-----------|-t-------|-t-t-----|-----------|-----t---|-----------|
E|-----------|---------|---------|-----------|---------|-----------|

            slur      slur          slur slur
   q q.s s   q-q e e   e-e q.s s   q e-e e-e   q q.s s   q e-e s e.
e|---------|---------|-----------|-----------|---------|-----------|
B|-----r---|-4/3-3-3-|-3/1-1-r---|-3---------|-----r---|-3-----r---|
G|-3-0-e-0-|---------|-------e---|---5/3-3p0-|-3-0-e---|---5/3-e---|
D|-----s---|---------|-------s-3-|-----------|-----s-3-|-------s-3-|
A|-----t---|---------|-------t---|-----------|-----t---|-------t---|
E|---------|---------|-----------|-----------|---------|-----------|

                             
                                 slur                    slur
          tie   tttiieee       tie                         tie
   q q e e---q h---h.--h.  w   h-e-e   q q q   q q q   q e-e-q
e|---------|-----|---|---|---|-------|-------|-------|---------|
B|-------1-|-1---|---|---|-r-|-6t6/3-|-3-r-r-|-4-3-1-|-3-3/1t1-|
G|-3-3-0---|---3-|-3-|-3-|-e-|-------|---e-e-|-------|---------|
D|---------|-----|---|---|-s-|-------|---s-s-|-------|---------|
A|---------|-----|---|---|-t-|-------|---t-t-|-------|---------|
E|---------|-----|---|---|---|-------|-------|-------|---------|

                         slur              slur
     sllur slur            tie           tie
   q e-e-e e-q q q   e e e-e-q   h e e   h-e-e   q q q
e|----------|------|-----------|-------|-------|-------|
B|-r--------|--r-1-|-1---3/1t1-|---r---|-6t6/3-|-3-r-r-|
G|-e-3/5/3-7/5-e---|---3-------|-3-e-3-|-------|---e-e-|
D|-s--------|--s---|-----------|---s---|-------|---s-s-|
A|-t--------|--t---|-----------|---t---|-------|---t-t-|
E|----------|------|-----------|-------|-------|-------|

               slluurr
                 tie       sluur slur                    tie
   q e e q   q e-e-e-e   q e-e-e e-e q e e   q q q   q e e-q
e|---------|-----------|----------|--------|-------|---------|
B|-4-3-1---|-3-3/1t1/3-|-r-------3/1-r-r---|-1---r-|-3-3-3t3-|
G|-------3-|-----------|-e-3/5/3--|--e-e-0-|---3-e-|---------|
D|---------|-----------|-s--------|--s-s---|-----s-|---------|
A|---------|-----------|-t--------|--t-t---|-----t-|---------|
E|---------|-----------|----------|--------|-------|---------|


   sllluuuuur     ******************* 
       tttiiieee  * 1st Ending      *
   e e h---h.--h. * q q e e         *
e|-------|---|---|----------|  |r|| *
B|-------|---|---|--r-r-r---|  |e|| *
G|-7/5/3-|-3-|-3-|--e-e-e---| *|p|| *
D|-------|---|---|--s-s-s-3-| *|e|| *
A|-------|---|---|--t-t-t---|  |a|| *
E|-------|---|---|----------|  |t||**


***************************************************************
* 2nd ending
*
*                                              tie   tie
*  q e e-q   q q e e   q q e e   q q q   q q e e-e e h-h.  w
e|---------|---------|---------|-------|--------|-----|--|---|
B|-r-------|-----r---|-----r---|-------|--------|-----|--|-r-|
G|-e-3-3t3-|-2-3-e---|-2-3-e---|-2-3-3-|-2-3-3p0t0----|--|-e-|
D|-s-------|-----s-3-|-----s-3-|-------|--------|--3-1t1-|-s-|
A|-t-------|-----t---|-----t---|-------|--------|-----|--|-t-|
E|---------|---------|---------|-------|--------|-----|--|---|


**************************************************************
                                slur
   q q e e   q q e e   q q e e   e-e q e e   q e e q   w
e|---------|---------|---------|-----------|---------|---|
B|-r-r-r---|-----r---|-----r---|-3/1---r---|-------r-|-r-|
G|-e-e-e---|-2-3-e---|-2-3-e---|-----3-e-3-|-3-3-3-e-|-e-|
D|-s-s-s-3-|-----s-3-|-----s-3-|-------s---|-------s-|-s-|
A|-t-t-t---|-----t---|-----t---|-------t---|-------t-|-t-|
E|---------|---------|---------|-----------|---------|---|


***************************
   ttiiiiiee       end of *
   h.- h.- q q q    2nd   *
e|-1-t-1-t-1-----| ending *
B|---|---|---r-r-|        *
G|---|---|---e-e-|        *
D|---|---|---s-s-|        *
A|---|---|---t-t-|        *
E|---|---|-------|*********


     slur                    slur
   tie                         tie
   h-e-e   q q q   q q q   q e-e-q
e|-------|-------|-------|---------|
B|-6t6/3-|-3-r-r-|-4-3-1-|-3-3/1t1-|
G|-------|---e-e-|-------|---------|
D|-------|---s-s-|-------|---------|
A|-------|---t-t-|-------|---------|
E|-------|-------|-------|---------|

                         slur              slur
     sllur slur            tie           tie
   q e-e-e e-q q q   e e e-e-q   h e e   h-e-e   q q q
e|----------|------|-----------|-------|-------|-------|
B|-r--------|--r-1-|-1---3/1t1-|---r---|-6t6/3-|-3-r-r-|
G|-e-3/5/3-7/5-e---|---3-------|-3-e-3-|-------|---e-e-|
D|-s--------|--s---|-----------|---s---|-------|---s-s-|
A|-t--------|--t---|-----------|---t---|-------|---t-t-|
E|----------|------|-----------|-------|-------|-------|

               slluurr
                 tie       sluur slur                    tie
   q e e q   q e-e-e-e   q e-e-e e-e q e e   q q q   q e e-q
e|---------|-----------|----------|--------|-------|---------|
B|-4-3-1---|-3-3/1t1/3-|-r-------3/1-r-r---|-1---r-|-3-3-3t3-|
G|-------3-|-----------|-e-3/5/3--|--e-e-0-|---3-e-|---------|
D|---------|-----------|-s--------|--s-s---|-----s-|---------|
A|---------|-----------|-t--------|--t-t---|-----t-|---------|
E|---------|-----------|----------|--------|-------|---------|

   slluurr                  *SLOW DOWN HERE*
       tie        slur tie       tie
   e-e-h-q q e e   q-e e-e   q e e-q   e e q q
e|------|--------|---------|---------|---------|
B|------|--r-r---|-6/4-4t4-|-3-3-3t3-|-3-1---r-|
G|-7/5/3t3-e-e-0-|---------|---------|-----3-e-|
D|------|--s-s---|---------|---------|-------s-|
A|------|--t-t---|---------|---------|-------t-|
E|------|--------|---------|---------|---------|





Comments


Popular Edwin Mccain tabs & chords
I Could Not Ask For More Chords
Ill Be 5 Chords
Sign On The Door Chords
Sun Will Rise Chords
White Crosses Chords
Day Will Never Come Ukulele
I Could Not Ask For More Ukulele
Ill Be 2 Ukulele
Mercy Bound Ukulele
Truly Believe Ukulele


Song lyrics



↑ Back to top | Tablatures and chords are parodies/interpretations of the original songs. You may use it for private study, scholarship, research or language learning purposes only
© 2014 AZChords.com Contact us | Privacy policy | DMCA | Add/correct tabs | Request tabs | Top 50 tabs