» » »

Trippin' Tabs (ver.2)

Artists:  A B C D E F G H I J K L M N O P Q R S T U V W X Y Z # 

Trippin' Tabs (ver.2)

Edwin
Rating:
0/5 (0 votes)

Hard to play? Try these video lessons and learn fast.
                


    *P.M.
e|------------------------------2h3p2-(2)-|
b|------3-------3--------1------3-----(3)-|
g|------4-------4--------2------2-----(2)-|
d|------2-------2--------2----0-------(0)-|
a|-----------2----2--0--------------------|
e|--0-------------------------------------|
    *

|------------------------------(2)--|
|-------3-------3--------1------3---|
|-------4-------4--------2------2---|
|-------2-------2--------2----0-4p0-|
|------------2----2--0--------------|
|--0--------------------------------|
   *
Trippin' around downtown............
|------------------------------3p2-|
|-------3------3---------1-----3---|
|-------4------4---------2-----2---|
|-------2------2---------2----0----|
|-----------2-----2--0-------------|
|--0-------------------------------|


|-----------------------------(2)--|
|-------3------3---------1-----3---|
|-------4------4---------2-----4p0-|
|-------2------2---------2----0----|
|-----------2-----2--0-------------|
|--0-------------------------------|

                             *A.H.----
|----------------------------------------|
|-------3------3-----1-------------------|
|-------4------4-----2-------------------|
|-------2------2-----2-------------------|
|-----------2-----2--0-------7-7-7-7-7---|
|--0-------------------------------------|
                             * * * * *
(0:34)chorus
|-------------------------------------------------------------|
|-------------------------------------------------------------|
|------7------5------7-------------7-------5-------7---10-10--|
|--2---7------5------7---------9---7-------5-------7---10-10--|
|--2---5------3------5---------7---5-------3-------5---8--8---|
|--0---5------3------5---------7---5-------3-------5---8--8---|

little fill in 2nd and 3rd chorus
||----------------------0------------------||
||------------------------3-1-0------------||
||------------------------------2-0--------||
||-----------------------------------------||
||-----------------------------------------||
||-----------------------------------------||

(1:30)fallin' down.........
||---------------------------(0)-------------||
||--------3-----3-------------3----3---------||
||----0--(0)----0---------2----------2-------||
||--2---2----2----2---------4--------4-------||
||--3--------3----------5--------5-----------||
||-------------------------------------------||
   *let ring- - - - - - - - - - - - - - - -




this was the first tab i've ever done up so dont it if i've
left some things out.  E-Mail me if you have any questions.
            
Hard to play? Try these video lessons and learn fast. | Correct




comments powered by Disqus
↑ Back to top | Tablatures and chords are parodies/interpretations of the original songs. You may use it for private study, scholarship, research or language learning purposes only