>
 >
Shotgun

Shotgun Guitar Tabs

Edwin - Shotgun chords, tabs, tablatures, lyrics

Guitar lessons | Add/correct | Request | Top 50 tabs Artists:  A B C D E F G H I J K L M N O P Q R S T U V W X Y Z 0-9

Shotgun Guitar Tabs – Edwin

CD, Sheet music, Poster

Do you like Shotgun? Share with your friends now
Tabs
Tuning: Drop-D
Instrument: Guitar

Intro: Guitar I
E |---------------------------|
B |-14-15-14-12^-14-15-14-12^-|
G |---------------------------|
D |---------------------------|
A |---------------------------|
D |---------------------------|
Intro: Guitar II
E |---------------------------|
B |-13~~~~~~~~~~~~~~~~~~~~~~~-|
G |---------------------------|
D |---------------------------|
A |---------------------------|
D |---------------------------|

Verse 1: Guitar II
E |--------------------------------|
B |--------------------------------|
G |--------------------------------|
D |-0-12-0-10-0-7-0-3--0-5-0-2-3h5-|
A |-0-12-0-10-0-7-0-3--0-5-0-2-3h5-|
D |-0-12-0-10-0-7-0-3--0-5-0-2-3h5-|

Chorus 1: Guitar II
E |-------------------------|
B |-------------------------|
G |-------------------------|
D |-0-2-4-0-2-4-0-2-4-0-2-8-|
A |-0-2-4-0-2-4-0-2-4-0-2-8-|
D |-0-2-4-0-2-4-0-2-4-0-2-8-|

Verse 2: Guitar I
E |-----|----------------|
B |-15~-|-13---13---13\8-|
G |-15~-|----------------|
D |-15~-|----------------|
A |-----|----------------|
D |-----|----------------|
Verse 2: Guitar II
E |--------------------------------|
B |--------------------------------|
G |--------------------------------|
D |-0-12-0-10-0-7-0-3--0-5-0-2-3h5-|
A |-0-12-0-10-0-7-0-3--0-5-0-2-3h5-|
D |-0-12-0-10-0-7-0-3--0-5-0-2-3h5-|

Chorus 2: Guitar I
E |----------------|
B |----------------|
G |-15~~-17~~-14~~-|
D |----------------|
A |----------------|
D |----------------|
Chorus 2: Guitar II
E |-------------------------|
B |-------------------------|
G |-------------------------|
D |-0-2-4-0-2-4-0-2-4-0-2-8-|
A |-0-2-4-0-2-4-0-2-4-0-2-8-|
D |-0-2-4-0-2-4-0-2-4-0-2-8-|

Interlude: Guitar I
E |--------------|
B |-15-15--15-15-|
G |--------------|
D |--------------|
A |--------------|
D |--------------|
Interlude: Guitar II
E |--------------------------------|
B |--------------------------------|
G |--------------------------------|
D |-0-12-0-10-0-7-0-3--0-5-0-2-3h5-|
A |-0-12-0-10-0-7-0-3--0-5-0-2-3h5-|
D |-0-12-0-10-0-7-0-3--0-5-0-2-3h5-|

Chorus 3: Guitar I
E |-------------------------|
B |-15\~~~~~~~~~~~~~~~~~~~~-|
G |-15\~~~~~~~~~~~~~~~~~~~~-|
D |-15\~~~~~~~~~~~~~~~~~~~~-|
A |-------------------------|
D |-------------------------|
Chorus 3: Guitar II
E |-------------------------|
B |-------------------------|
G |-------------------------|
D |-0-2-4-0-2-4-0-2-4-0-2-8-|
A |-0-2-4-0-2-4-0-2-4-0-2-8-|
D |-0-2-4-0-2-4-0-2-4-0-2-8-|

Verse 3: Guitar I
E |------------------------|
B |------------------------|
G |----14-17-19-17-14-12-16|
D |-12---------------------|
A |------------------------|
D |------------------------|
Verse 3: Guitar II
E |--------------------------------|
B |--------------------------------|
G |--------------------------------|
D |-0-12-0-10-0-7-0-3--0-5-0-2-3h5-|
A |-0-12-0-10-0-7-0-3--0-5-0-2-3h5-|
D |-0-12-0-10-0-7-0-3--0-5-0-2-3h5-|

End On: Guitar I
E |-----|
B |-----|
G |-12~-|
D |-----|
A |-----|
D |-----|
End On: Guitar I
E |----|
B |----|
G |----|
D |-0~-|
A |-0~-|
D |-0~-|





Comments


Popular Edwin tabs & chords
Alive Chords
Right Here Chords
Alive Tabs
And You Tabs
Hang Ten Tabs
Trippin' Tabs
Trippin' 1 Tabs
Alive Ukulele
Right Here Ukulele


Song lyrics



↑ Back to top | Tablatures and chords are parodies/interpretations of the original songs. You may use it for private study, scholarship, research or language learning purposes only
© 2014 AZChords.com Contact us | Privacy policy | DMCA | Add/correct tabs | Request tabs | Top 50 tabs