>
 >
Alive

Alive Guitar Tabs

Edwin - Alive chords, tabs, tablatures, lyrics

Guitar lessons | Add/correct | Request | Top 50 tabs Artists:  A B C D E F G H I J K L M N O P Q R S T U V W X Y Z 0-9

Alive Guitar Tabs – Edwin

CD, Sheet music, Poster

Do you like Alive? Share with your friends now
ChordsTabsUkulele
Song-Alive
Artist-Edwin
Album-Another Spin Around The Sun

 


 Intro   (Guitar 1)

e|---------------------------------------------------------|
B|---------------------------------------------------------|
G|---------------------------------------------------------|
D|---------------------------------------------------------|
A|---------------------------0---3(Sustain)--------------x2|
E|--5(Sustain)---1(Sustain)------------------3(Sustain)----|

 Guitar 2  (Violin arranged for guitar)

e|-----------------------------------|
B|-----------------------------------|
G|---5~------1~-----3~---------x2----|
D|------1~-----------3~--------------|
A|-----------------------------------|
E|-----------------------------------|


 First verse

e|---------------------------------------------------------|
B|---------------------------------------------------------|
G|--------------------------------------3-3-3-3-3-3-3-3----|
D|--5-5-5-5-5-5-5-5--1-1-1-1-1-1-1-1-----------------------|
A|---------------------------------------------------------|
E|---------------------------------------------------------|
  P.M.....................................................
  
It feels so good to breathe the air..................

 First verse continued

e|-----------------------|
B|-----------------------|
G|-----------------------|
D|-3-3-3-3-3-3-3-3----x8-|
A|-----------------------|
E|-----------------------|
  P.M....................


 Pre-Chorus  (Guitar 1)

 Play 2 times

e|---------1--------------3----|
B|---1-----1---------1---------|
G|---2-----2-x8----------------|
D|---2-x8--3---------2-x8------|
A|-------------------3----2-x8-|
E|------------------------3----|
 
 Every year another promise is made....

 Guitar 2

e|----------------------------------------------------|
B|----------------------------------------------------|
G|-----------------------------------3-3-3-3-3-3-3-3--|
D|--5-5-5-5-5-5-5-5--1-1-1-1-1-1-1-1------------------|
A|----------------------------------------------------|
E|----------------------------------------------------|

 Guitar 2 continued

e|-----------------------|
B|-----------------------|
G|-----------------------|
D|-3-3-3-3-3-3-3-3----x2-|
A|-----------------------|
E|-----------------------|

 Chorus  (Guitar 1)

 Play 4 times

e|---------1--------------3----|
B|---1-----1---------1---------|
G|---2-----2-x8----------------|
D|---2-x8--3---------2-x8------|
A|-------------------3----2-x8-|
E|------------------------3----|

 Aint it good to be alive.....

 
 Guitar 2

 
e|----------------------------------------------------|
B|----------------------------------------------------|
G|-----------------------------------3-3-3-3-3-3-3-3--|
D|--5-5-5-5-5-5-5-5--1-1-1-1-1-1-1-1------------------|
A|----------------------------------------------------|
E|----------------------------------------------------|

 Guitar 2 continued

e|-----------------------|
B|-----------------------|
G|-----------------------|
D|-3-3-3-3-3-3-3-3----x4-|
A|-----------------------|
E|-----------------------|

 Bridge

 Play 4 times

e|---------1----1---1----------3-----|
B|---1-----1----1---1----1-----------|
G|---2-----2-x4-2---2----------------|
D|---2-x4--3----3---3----2-x8--------|
A|-----------------------3-----2-x8--|
E|-----------------------------3-----|

  Alive, alive, alive,...... 

Chorus

 Repeat bridge


 Well there it is. This actually took me a long
 time to tab out so I hope you like it.

 P.m.=Palm mute
 ~=Vibrato





Comments


Popular Edwin tabs & chords
Alive Chords
Right Here Chords
And You Tabs
Hang Ten Tabs
Shotgun Tabs
Trippin' Tabs
Trippin' 1 Tabs
Alive Ukulele
Right Here Ukulele


Song lyrics



↑ Back to top | Tablatures and chords are parodies/interpretations of the original songs. You may use it for private study, scholarship, research or language learning purposes only
© 2014 AZChords.com Contact us | Privacy policy | DMCA | Add/correct tabs | Request tabs | Top 50 tabs