» » »

Edward Sharpe And The Magnetic Zeros, Simplest Love Tabs (ver.1)

Artists:  A B C D E F G H I J K L M N O P Q R S T U V W X Y Z # 

Simplest Love Tabs (ver.1)

Edward Sharpe And The Magnetic Zeros Tabs
 Rating:
4/5 (4 votes)
Simplest Love lessons Tabs too difficult? Try these video lessons and learn fast
                -----------------------------------------------------------------
SONG NAME - Band Name
-----------------------------------------------------------------

Tuning:Standard

Chords: (repeat throughout whole song)

      bmin           G           A             bmin
e|------2------------3-----------0--------------2--------------------|
B|------3------------3-----------2--------------3--------------------|
G|------4------------0-----------2--------------4--------------------|
D|------4------------0-----------2--------------4--------------------|
A|------2------------2-----------0--------------2--------------------|
E|-------------------3-----------------------------------------------|

Melody played along with chords


  bmin         G        A       bmin 
e|---------------------------------------------------------------|
B|---------------------------------------------------------------|
G|----4-4-------2-0-----2-------2--------------------------------|
D|0--------------------------------2--4--0-----------------------|
A|---------------------------------------------------------------|
E|---------------------------------------------------------------|
  bmin       G      A       bmin
e|---------------------------------------------------------------|
B|---------------------------------------------------------------|
G|---4-4-----2-0-------------------------------------------------|
D|0------------------2------2-3-4--------------------------------|
A|---------------------------------------------------------------|
E|---------------------------------------------------------------|



| /  slide up
| \  slide down
| h  hammer-on
| p  pull-off
| ~  vibrato
| +  harmonic
| x  Mute note
            
Submit corrections

comments powered by Disqus
↑ Back to top | Edward Sharpe And The Magnetic Zeros Tabs for Simplest Love. Lyrics for acoustic guitar and electric guitar. Tablatures and chords are parodies/interpretations of the original songs. You may use it for private study, scholarship, research or language learning purposes only