» » »

Edward Sharpe And The Magnetic Zeros, Home Tabs (ver.2)

Artists:  A B C D E F G H I J K L M N O P Q R S T U V W X Y Z # 
Rating:
5/5 (6 votes)
Home lessons Tabs too difficult? Try these video lessons and learn fast
                -----------------------------------------------------------------------------
        HOME - Edward Sharpe & the Magnetic Zeros (Jorge Narvaez Version)
-----------------------------------------------------------------------------

This is the Jorge Narvaez version tabbed from these 2 videos:

This dude's a lefty so he holds his guitar upside down (strung right-handed, played

left-handed). It made it a little tough to tab.

He doesn't play it quite the same in the 2 videos so watch where he starts the

chords late in the 2nd one.

Tuning: Standard with capo on 4th fret in video 1 on 6th fret in video 2. Either way

the capo is counted as zero.

Can be played without capo exactly the same.

Intro & after bridge: With whistling (can be continued into verse)
Down, Up strumming pattern
      Am     C               F       Am     C
     shape  shape           shape   shape  shape
e|----0-0-0-0-0-0-0-0-0-0-0-0-1-1-1-1-0-0-0-0-0-0-0-0-0-0-0-----------------|
B|----1-1-1-1-1-1-1-1-1-1-1-1-1-1-1-1-1-1-1-1-1-1-1-1-1-1-1-----------------|
G|----2-2-2-2-0-0-0-0-0-0-0-0-3-3-3-3-2-2-2-2-0-0-0-0-0-0-0-----------------|
D|---2-2-2-2-2-2-2-2-2-2-2-2---------2-2-2-2-2-2-2-2-2-2-2-2----------------|
A|---0-0-0-0-3-3-3-3-3-3-3-3-3-3-3-3-0-0-0-0-3-3-3-3-3-3-3-3----------------|
E|---------------------------1-1-1-1-------------------------1--------------|

Verse & Chorus (simple verson without strumming pattern)(x4):
     Am  C   C   F
e|---x---x---x---x----------------------------------------------------------|
B|---1---1---1---x----------------------------------------------------------|
G|---2---0---0---2----------------------------------------------------------|
D|---2---2---2---3----------------------------------------------------------|
A|---0---3---3---3----------------------------------------------------------|
E|---0---3---3---1----------------------------------------------------------|

Bridge (x3 except substitute G for an F on the third time):
     Dm Am C G (F Third time) (back to intro after this)
e|---1- x- x-3 (x)---------------------------------------------------------|
B|---3- 1- 1-0 (x)---------------------------------------------------------|
G|---2- 2- 0-0 (2)---------------------------------------------------------|
D|---0- 2- 2-0 (3)---2-----------------------------------------------------|
A|---0- 0- 3-2 (3)--0------------------------------------------------------|
E|---x- 0- 3-3 (1)-3-------------------------------------------------------|

Verse & Chorus (closer to the way he plays it)(x2):
     Am    C   C    F        Am  C   C   F
e|---x---xxx--xxxxxxxxxxxxxx-x---x---x---x----------------------------------|
B|---1---111--111111xxxxxxxx-1---1---1---x----------------------------------|
G|---2---220--00000022222222-2---0---0---2----------------------------------|
D|---2---222--22222233333333-2---2---2---3----------------------------------|
A|---0---003--33333333333333-0---3---3---3----------------------------------|
E|---0---003--33333311111111-0---3---3---1----------------------------------|

NOTES:
The C can be played traditionally as X32010
The Am can be played traditionally as X0221X
The F can be played traditionally as 133211

LYRICS:


Alabama Arkansas I do Love my Ma and Pa
But not as much as I do Love you
Holy Moly Me oh My your the apple of my eye
Girl aint never loved one like you
Man o Man your my best friend I scream it to the nothingness
that we got everything we need
Hot and Heavy pumpkin pie
Chocolate candy Jesus Christ
Aint nothin please me more than you

(Chorus)
Home, Let me come Home
Home is Whenever Im with you
Home, yes I am Home
Home is wherever Im with you

Lalalala Take me Home
Mama Im Coming Home

I follow you into the park, thru the jungle thru the dark
Girl aint never loved one like you
Moats and boats and Waterfalls, Alleyways and payphone calls
I been everywhere with you
Laugh until we think we'll die, barefoot on a summer night
never could be sweeter than with you

like its only you and me jade/ebes your somethin to see

(Chorus)

Lalalala take me home
Mama Im Comin Home

Jade, you remember that night you fell outa my window?
ya you came jumpin out after me
well, you were bleedin all over the place and I covered your ass with your dress and

we went off to the hospital, you remember that?
ya
well there's somethin I never told you bout that night
what didnt you tell me?
well, while you were sitting in the back seat smokin a cigarrette you thought was gona 
be your last, I was fallin deep, deep in love with you, and I never told you till just now!

(Chorus)

Home, let me come home, home is wherever Im with you
Home, yes I am Home home is whenever Im with you!

Alabama Arkansas I do love my Ma and Pa
Yes Home, yes ward! home is whenever Im with you!
Home is whenever Im with you. And if

************************************
            
Submit corrections

comments powered by Disqus
↑ Back to top | Edward Sharpe And The Magnetic Zeros Tabs for Home. Lyrics for acoustic guitar and electric guitar. Tablatures and chords are parodies/interpretations of the original songs. You may use it for private study, scholarship, research or language learning purposes only