» » »

Home Bass tabs (ver.2)

Artists:  A B C D E F G H I J K L M N O P Q R S T U V W X Y Z # 

Home Bass tabs (ver.2)

Edward Sharpe And The Magnetic Zeros
Rating:
0/5 (0 votes)
Tabs too difficult? Try these video lessons and learn fast.
                -------------------------------------------------------------------------------
			     Home - Edward sharpe And The Magnetic Zeroes
-------------------------------------------------------------------------------


Tuning:standard

G|---------------------------------------------------------------------------|
D|---------------------------------------------------------------------------|
A|---------------------------------------------------------------------------|
E|-----2--------2--------5---------5---------5---------5----3---------3------|
B|0--------0---------3--------3---------3---------3--------------3---------3-|
Repeat as many times as needed

G|---------------------------------------------------------------------------|
D|---------------------------------------------------------------------------|
A|-7--------5--------0-------------------------------------------------------|
E|---------------------------------------------------------------------------|
B|---------------------------------------------------------------------------|

G|---------------------------------------------------------------------------|
D|---------------------------------------------------------------------------|
A|-7--------5--------0-------------------------------------------------------|
E|---------------------------------------------------------------------------|
B|---------------------------------------------------------------------------|

G|---------------------------------------------------------------------------|
D|---------------------------------------------------------------------------|
A|-7--------5----------------------------------------------------------------|
E|-------------------3-------------------------------------------------------|
B|---------------------------------------------------------------------------|

G|----------2------------------0-------------------2-------------------------|
D|--------------------2------------------------------------------------------|
A|-2-------------------------------------------------------------------------|
E|---------------------------------------------------------------------------|
B|---------------------------------------------------------------------------|

G|---------------------------------------------------------------------------|
D|---------------------------------------------------------------------------|
A|-0---2---4-----------------------------------------------------------------|
E|---------------------------------------------------------------------------|
B|---------------------------------------------------------------------------|

G|---------------------------------------------------------------------------|
D|---------------------------------------------------------------------------|
A|---------------------------------------------------------------------------|
E|-----2--------2--------5---------5---------5---------5----3---------3------|
B|0--------0---------3--------3---------3---------3--------------3---------3-|
Repeat as many times as needed

G|---------------------------------------------------------------------------|
D|---------------------------------------------------------------------------|
A|-7--------5--------0-------------------------------------------------------|
E|---------------------------------------------------------------------------|
B|---------------------------------------------------------------------------|

G|---------------------------------------------------------------------------|
D|---------------------------------------------------------------------------|
A|-7--------5--------0-------------------------------------------------------|
E|---------------------------------------------------------------------------|
B|---------------------------------------------------------------------------|

G|---------------------------------------------------------------------------|
D|---------------------------------------------------------------------------|
A|-7--------5----------------------------------------------------------------|
E|-------------------3-------------------------------------------------------|
B|---------------------------------------------------------------------------|

G|----------2------------------0-------------------2-------------------------|
D|--------------------2------------------------------------------------------|
A|-2-------------------------------------------------------------------------|
E|---------------------------------------------------------------------------|
B|---------------------------------------------------------------------------|

G|---------------------------------------------------------------------------|
D|---------------------------------------------------------------------------|
A|-0---2---4-----------------------------------------------------------------|
E|---------------------------------------------------------------------------|
B|---------------------------------------------------------------------------|

G|---------------------------------------------------------------------------|
D|---------------------------------------------------------------------------|
A|---------------------------------------------------------------------------|
E|-----2--------2--------5---------5---------5---------5----3---------3------|
B|0--------0---------3--------3---------3---------3--------------3---------3-|
Repeat until the end of the song

| /  slide up
| \  slide down
| h  hammer-on
| p  pull-off
| ~  vibrato
| +  harmonic
| x  Mute note
===============================================================================
            
Tabs too difficult? Try these video lessons and learn fast.


comments powered by Disqus
↑ Back to top | Tablatures and chords are parodies/interpretations of the original songs. You may use it for private study, scholarship, research or language learning purposes only