» » »

Home Bass tabs (ver.1)

Artists:  A B C D E F G H I J K L M N O P Q R S T U V W X Y Z # 

Home Bass tabs (ver.1)

Edward Sharpe And The Magnetic Zeros
Rating:
0/5 (0 votes)

Hard to play? Try these video lessons and learn fast.
                -------------------------------------------------------------------------------
			     Home - Edward sharpe And The Magnetic Zeroes
-------------------------------------------------------------------------------


Tuning:standard

G|---------------------------------------------------------------------------|
D|---------------------------------------------------------------------------|
A|-2-2-2-2-2-2-2-2-5-5-5-5-5-5-5-5-------------------------------------------|
E|---------------------------------2-2-2-2-2-2-2-2-3-3-3-3-3-3-3-3-----------|
Repeat as many times as needed

G|---------------------------------------------------------------------------|
D|---------------------------------------------------------------------------|
A|-7--------5--------0-------------------------------------------------------|
E|---------------------------------------------------------------------------|

G|---------------------------------------------------------------------------|
D|---------------------------------------------------------------------------|
A|-7--------5--------0-------------------------------------------------------|
E|---------------------------------------------------------------------------|

G|---------------------------------------------------------------------------|
D|-2--------0----------------------------------------------------------------|
A|---------------------------------------------------------------------------|
E|-------------------3-------------------------------------------------------|

G|---------------------------------------------------------------------------|
D|---------------------------------------------------------------------------|
A|-2--------0----------------------------------------------------------------|
E|--------------------0--------3---------------------------------------------|

G|---------------------------------------------------------------------------|
D|---------------------------------------------------------------------------|
A|-0---2---4-----------------------------------------------------------------|
E|---------------------------------------------------------------------------|

G|---------------------------------------------------------------------------|
D|---------------------------------------------------------------------------|
A|-2-2-2-2-2-2-2-2-5-5-5-5-5-5-5-5-------------------------------------------|
E|---------------------------------2-2-2-2-2-2-2-2-3-3-3-3-3-3-3-3-----------|
Repeat as many times as needed

G|---------------------------------------------------------------------------|
D|---------------------------------------------------------------------------|
A|-7--------5--------0-------------------------------------------------------|
E|---------------------------------------------------------------------------|

G|---------------------------------------------------------------------------|
D|---------------------------------------------------------------------------|
A|-7--------5--------0-------------------------------------------------------|
E|---------------------------------------------------------------------------|

G|---------------------------------------------------------------------------|
D|-2--------0----------------------------------------------------------------|
A|---------------------------------------------------------------------------|
E|-------------------3-------------------------------------------------------|

G|---------------------------------------------------------------------------|
D|---------------------------------------------------------------------------|
A|-2--------0----------------------------------------------------------------|
E|--------------------0--------3---------------------------------------------|

G|---------------------------------------------------------------------------|
D|---------------------------------------------------------------------------|
A|-0---2---4-----------------------------------------------------------------|
E|---------------------------------------------------------------------------|

G|---------------------------------------------------------------------------|
D|---------------------------------------------------------------------------|
A|-2-2-2-2-2-2-2-2-5-5-5-5-5-5-5-5-------------------------------------------|
E|---------------------------------2-2-2-2-2-2-2-2-3-3-3-3-3-3-3-3-----------|
Repeat until the end of the song

| /  slide up
| \  slide down
| h  hammer-on
| p  pull-off
| ~  vibrato
| +  harmonic
| x  Mute note
===============================================================================
            
Hard to play? Try these video lessons and learn fast. | Correct




comments powered by Disqus
↑ Back to top | Tablatures and chords are parodies/interpretations of the original songs. You may use it for private study, scholarship, research or language learning purposes only