» » »

Stereo Love Tabs (ver.1)

Artists:  A B C D E F G H I J K L M N O P Q R S T U V W X Y Z # 

Stereo Love Tabs (ver.1)

Edward Maya
Rating:
5/5 (4 votes)

Hard to play? Try these video lessons and learn fast.
                Edward Maya - Stereo Love

C#m               A                E
When you're gonna stop breaking my heart
C#m            A          E  A
I don't wanna be another one
C#m               A            E
Paying for the things I never done
E
Don't let go
B
Don't let go
       A
To my love

C#m               A
Can I get to your soul
C#m                 A
Can you get to my thoughts
C#m                   A      B
Can you promise we won't let go

C#m                    A
All the things that I need
C#m                     A
All the things that you need
C#m               A      B
You can make it feel so real.

C#m            E
Cuz you can't deny
A               E
You've blown my mind
E                   A
When I touch your body
A
I feel I'm loosing control

C#m            E
Cuz you can't deny
A               E
You've blown my mind
E                A
When I see you baby
A
I just don't wanna let go


Accordion melody


E|-----12--12-    E|-----12-----|
B|--9---------    B|--9---------|
G|------------    G|------------|
D|------------ x4 D|------------| x2
A|------------    A|------------|
E|------------    E|------------|

E|-----12-12p11h12--14p12--11h12--9h11------------------|
B|--9----------------------------------12h14--10h12--9--|
G|------------------------------------------------------|
D|------------------------------------------------------|
A|------------------------------------------------------|
E|------------------------------------------------------|

Same chords for the rest of the song.
            
Hard to play? Try these video lessons and learn fast. | Correct




comments powered by Disqus
↑ Back to top | Tablatures and chords are parodies/interpretations of the original songs. You may use it for private study, scholarship, research or language learning purposes only