» » »

Stereo Love Bass tabs (ver.1)

Artists:  A B C D E F G H I J K L M N O P Q R S T U V W X Y Z # 

Stereo Love Bass tabs (ver.1)

Edward Maya
Rating:
0/5 (0 votes)

Hard to play? Try these video lessons and learn fast.
                Not an extremely difficult song, just gotta pay attention to the rhythmic patterns.
Standard tuning.

Check out my bass cover of this song!


Check out my channel for more covers!


Intro

G|------------------------------------------------------------------------|
D|------------------------------------------------------------------------|
A|-4-----4---4---4---7---------------4-----4---4---4---7------------------| x2
E|----------------------5--4---4---4----------------------5--4---4---4----|

G|----6-----6-------------------------9-----9-----------------------------|
D|--------------------7-----7-------------------------6-----6-------------|
A|-4-----4-------4-----------------7-----7-------7------------------------| x2
E|-----------------5-----5-------5-----------------4-----4-------4--------|

G|------------------------------------------------------------------------|
D|------------------------------------------------------------------------|
A|-4---------------4---------------4---------------4----------------------| x2
E|------------------------------------------------------------------------|

Verse 1

G|------------------------------------------------------------------------|
D|------------------------------------------------------------------------|
A|-4-----4-------4---7---------------4-----4---4---4---7------------------|
E|-----------4----------5--4---4---4----------------------5--4---4---4----|

G|------------------------------------------------------------------------|
D|------------------------------------------------------------------------|
A|-4-----4---4---4---7---------------4-----4---4---4---7------------------|
E|----------------------5--4---4---4----------------------5--4---4---4----|

   Play the two lines above twice

Pre-Chorus 1

G|------------------------------------------------------------------------|
D|------------------------------------------------------------------------|
A|-4---------------4---------------4---------------4----------------------| x2
E|------------------------------------------------------------------------|

Chorus 1

G|----6-----6-------------------------9-----9-----------------------------|
D|--------------------7-----7-------------------------6-----6-------------|
A|-4-----4-------4-----------------7-----7-------7------------------------| x4
E|-----------------5-----5-------5-----------------4-----4-------4--------|

Verse 2

G|------------------------------------------------------------------------|
D|------------------------------------------------------------------------|
A|-4-----4-------4---7---------------4-----4-------4---7------------------|
E|-----------4----------5--4---4---4-----------4----------5--4---4---4----|

G|------------------------------------------------------------------------|
D|------------------------------------------------------------------------|
A|-4-----4-------4---7---------------4-----4---4---4---7------------------|
E|-----------4----------5--4---4---4----------------------5--4---4---4----|

   Play the two lines above twice   

Pre-Chorus 2

G|------------------------------------------------------------------------|
D|------------------------------------------------------------------------|
A|-4-----4---4---4---7---------------4--4--4---4---4---7------------------|
E|----------------------5--4---4---4----------------------5--4---4---4----|

G|------------------------------------------------------------------------|
D|------------------------------------------------------------------------|
A|-4-----4---4---4---7---------------4-----4---4---4---7------------------|
E|----------------------5--4---4---4----------------------5--4---4---4----|

G|------------------------------------------------------------------------|
D|------------------------------------------------------------------------|
A|-4---------------4---------------4---------------4----------------------| x2
E|------------------------------------------------------------------------|

Chorus 2

G|----6-----6-------------------------9-----9-----------------------------|
D|--------------------7-----7-------------------------6-----6-------------|
A|-4-----4-------4-----------------7-----7-------7------------------------| x7
E|-----------------5-----5-------5-----------------4-----4-------4--------|

G|----6-----6-------------------------9-----9-----------------------------|
D|--------------------7-----7-------------------------6-----6-------------|
A|-4-----4-------4-----------------7-----7-------7------------------------|
E|-----------------5-----5-------5-----------------4-----4-------4--------|
            
Hard to play? Try these video lessons and learn fast. | Correct




comments powered by Disqus
↑ Back to top | Tablatures and chords are parodies/interpretations of the original songs. You may use it for private study, scholarship, research or language learning purposes only