» » »

Edvard Grieg, In The Hall Of The Mountain King Tabs (ver.2)

Artists:  A B C D E F G H I J K L M N O P Q R S T U V W X Y Z # 

In The Hall Of The Mountain King Tabs (ver.2)

Edvard Grieg Tabs
 Rating:
4/5 (4 votes)
In The Hall Of The Mountain King lessons Tabs too difficult? Try these video lessons and learn fast
                (Intro)
-----------------------------------------------------------------------------
              In the hall of the mountain king - Edvard Grieg
-----------------------------------------------------------------------------

Tuning: Standard

It begins slowly and it's played staccato in the beginning (you can see strings picking 
instruments) and then the themes are repeated but faster.

1/4 ~= 60bpm (Larghetto) but probably slower

Legend:
s = Sixteenth Note
e = Eighteenth Note
f = Fourth Note


Theme 1:

   s s s s s s e  s s e  s s e  s s s s s s s s s s s s f
e|--------------------------------------------------------------------------|
B|--------------------------------------------------------------------------|
G|--------------------------------------------4-2-------2-------------------|
D|-------2-4---4--3---4--2---2--------2-4---4-----4---4---------------------|
A|-2-4-5-----5------4------3----2-4-5-----5---------5-----------------------|
E|--------------------------------------------------------------------------|

   s s s s s s e  s s e  s s e  s s s s s s s s s s s s f
e|--------------------------------------------------------------------------|
B|--------------------------------------------------------------------------|
G|--------------------------------------------4-------5---------------------|
D|-------2-4---4--3---4--2---2--------2-4---4---4---4-----------------------|
A|-2-4-5-----5------4------3----2-4-5-----5-------5-----2-------------------|
E|--------------------------------------------------------------------------|


Theme 2:

   s s s s s s e  s s e  s s e  s s s s s s e  s s e  f
e|-------------------------------------------------------------------------|
B|----------------4---4------------------------4---4-----------------------|
G|-----3-4-6-3-6----3----6-3-6------3-4-6-3-6----3----6--------------------|
D|-4-6--------------------------4-6----------------------------------------|
A|-------------------------------------------------------------------------|
E|-------------------------------------------------------------------------|

   s s s s s s e  s s e  s s e  s s s s s s e  s s e  f
e|-------------------------------------------------------------------------|
B|----------------4---4------------------------4---4-----------------------|
G|-----3-4-6-3-6----3----6-3-6------3-4-6-3-6----3----6--------------------|
D|-4-6--------------------------4-6----------------------------------------|
A|-------------------------------------------------------------------------|
E|-------------------------------------------------------------------------|
            
Submit corrections

comments powered by Disqus
↑ Back to top | Edvard Grieg Tabs for In The Hall Of The Mountain King. Lyrics for acoustic guitar and electric guitar. Tablatures and chords are parodies/interpretations of the original songs. You may use it for private study, scholarship, research or language learning purposes only