» » »

Edvard Grieg, In The Hall Of The Mountain King Tabs (ver.4)

Artists:  A B C D E F G H I J K L M N O P Q R S T U V W X Y Z # 

In The Hall Of The Mountain King Tabs (ver.4)

Edvard Grieg Tabs
Rating:
5/5 (2 votes)
In The Hall Of The Mountain King lessons Tabs too difficult? Try these video lessons and learn fast
                -------------------------------------------------------------------------------
      In The Hall Of The Mountain King - Edvard Grieg                        
-------------------------------------------------------------------------------

Tuning: Standard
CAPO ON THE 2ND FRET
I find it easier to finger pick

e|---------0---0--|---------------|---------0---0-5-|-3-0---0-3-----|
B|---0-1-3---1----|-4---4--3---3--|---0-1-3---1-----|-----1---------|
G|-2--------------|---4------3----|-2---------------|-----0------0--|
D|-----2-------2--|-----2------2--|-----2-------2---|---------------|
A|-0-------0------|-0------0------|-0-------0-------|-3-------3-----|
E|----------------|---------------|-----------------|---------------|

e|----------------|---------------|----------------|---------------|
B|---------0---0--|-1---1--0---0--|---------0---0--|-1----1--0-----|
G|-----1-2---1----|---1------1----|-----1-2---1----|---1-----------|
D|-2-4------------|---------------|-2-4------------|---------------|
A|-----2----------|-3-------------|-----2----------|-3-------------|
E|-0-------0---4--|-----4--0---4--|-0-------0---4--|------4--0--4--|

e|---------0---0--|---------------|---------0---0-5-|-0---0---------|
B|---0-1-3---1----|-4---4--3---3--|---0-1-3---1-----|---1-----------|
G|-2--------------|---4------3----|-2---2---0---3---|--------2--2---|
D|-----2-------2--|-----2------2--|-----------------|-2---0---------|
A|-0-------0------|-0------0------|-0---------------|--------3--2---|
E|----------------|---------------|-----------------|---------------|
            

comments powered by Disqus
↑ Back to top | Edvard Grieg Tabs for In The Hall Of The Mountain King. Lyrics for acoustic guitar and electric guitar. Tablatures and chords are parodies/interpretations of the original songs. You may use it for private study, scholarship, research or language learning purposes only