» » »

In The Hall Of The Mountain King Tabs (ver.3)

Artists:  A B C D E F G H I J K L M N O P Q R S T U V W X Y Z # 

In The Hall Of The Mountain King Tabs (ver.3)

Edvard Grieg
Rating:
4/5 (2 votes)

Tabs too difficult? Try these video lessons and learn fast.
                ----------------------------------------------------------------------------
                        IN THE HALL OF THE MOUNTAIN KING              
----------------------------------------------------------------------------
    
        Here is a great classical tune that has been done in some many
different ways. The trick with this song is to start out slow, then get
faster and faster till you have to bail, and play the outro. It is
unbelieveable how fast some bands have done it. The song can be done in 
any key, i prefer A thats all

Tuning: Standard
Key: A

  A           B   Bb  A            C
E--------------------|--------------------|
B--------------------|--------------------|
G--------------------|--------------------|
D--------------------|------------7-5----5|
A-------5-7-7-6-6-5-5|-------5-7-7----7-7-|
E-5-7-8----8---7---6-|-5-7-8----8------8--|

 A             B   Bb   A            C
E---------------------|----------------------|
B---------------------|-------------10-8----8|
G-------7-9--9-8-8-7-7|-------7-9--9----9--9-|
D-7-9-10---10---9---8-|-7-9-10---10------10--|
A---------------------|----------------------|
E---------------------|----------------------|

 E              A        E     E             A        E
E-----------------------------|---------------------------|
B-----------------------------|---------------------------|
G-----------------------------|---------------------------|
D----6-7-9-6-9--10-7-10--9-6-9|----6-7-9-6-9--10-7-10--9~~| ***REPEAT***
A-7-9-------------------------|-7-9-----------------------|
E-----------------------------|---------------------------|

When your hand is about to fall off play:

E--------|--------|-------------------|---------|
B--------|--------|-------------------|---------|
G--------|--------|-------------------|---------|
D--7-----|--7-----|-----------7-6-6-7~|-7--7----|
A--6-----|--6-----|------5-7-7---7-7--|-6--6----|
E-5------|-5------|-5-7-8---8---------|-8--5----|

Have fun.
Leave a comment.
Thanks to Frodo for giving me a hand with this tab.
            
Tabs too difficult? Try these video lessons and learn fast.




comments powered by Disqus
↑ Back to top | Tablatures and chords are parodies/interpretations of the original songs. You may use it for private study, scholarship, research or language learning purposes only