» » »

Edvard Grieg, In The Hall Of The Mountain King Tabs (ver.1)

Artists:  A B C D E F G H I J K L M N O P Q R S T U V W X Y Z # 

In The Hall Of The Mountain King Tabs (ver.1)

Edvard Grieg Tabs
 Rating:
4/5 (13 votes)
In The Hall Of The Mountain King lessons Tabs too difficult? Try these video lessons and learn fast
1
                "In The Hall Of The Mountain King" by Edvard Grieg

     E  E  E  E  E  E  Q       E  E  Q    E  E  Q
E||-------------------------|------------------------|
B||-------------------------|------------------------|
G||-------------------------|------------------------|
D||-----------3--5-----5----|--4-----4----3-----3----|
A||--3--5--6--------6-------|-----5----------4-------|
E||-------------------------|------------------------|


  E  E  E  E  E  E  E  E     E  E  E  E  H           E  E  E  E  E  E  Q
--------------------------|-----------------------|-------------------------|
--------------------------|-----------------------|-------------------------|
-----------------------5--|--3-----------3--------|-------------------------|
-----------3--5-----5-----|-----5-----5-----------|-----------3--5-----5----|
--3--5--6--------6--------|--------6--------------|--3--5--6--------6-------|
--------------------------|-----------------------|-------------------------|


  E  E  Q    E  E  Q       E  E  E  E  E  E  E  E     E  E  E  E  H
------------------------|--------------------------|-----------------------|
------------------------|--------------------------|-----------------------|
------------------------|-----------------------5--|--3-----------3--------|
--4-----4----3-----3----|-----------3--5-----5-----|-----5-----5-----------|
-----5----------4-------|--3--5--6--------6--------|--------6--------------|
------------------------|--------------------------|-----------------------|


  E  E  E  E  E  E  Q       E   E  Q    E  E  Q       E  E  E  E  E  E  Q
-------------------------|-------------------------|-------------------------|
-------------------------|-------------------------|-------------------------|
-----------5--7-----7----|--8------8----7-----7----|-----------5--7-----7----|
--5--7--9--------9-------|-----10----------9-------|--5--7--9--------9-------|
-------------------------|-------------------------|-------------------------|
-------------------------|-------------------------|-------------------------|


  E   E  Q    H           E  E  E  E  E  E  Q       E  E  Q    E  E  Q
-----------------------|-------------------------|------------------------|
-----------------------|-------------------------|------------------------|
--8------8----7--------|-----------5--7-----7----|--9-----9----7-----7----|
-----10----------------|--5--7--9--------9-------|-----9----------9-------|
-----------------------|-------------------------|------------------------|
-----------------------|-------------------------|------------------------|


  E  E  E  E  E  E  Q       E  E  Q    H
-------------------------|----------------------||
-------------------------|----------------------||
-----------5--7-----7----|--9-----9----7--------||
--5--7--9--------9-------|-----9----------------||
-------------------------|----------------------||
-------------------------|----------------------||


I hope this helps. I play it exactly like that.
            
Submit corrections

comments powered by Disqus
↑ Back to top | Edvard Grieg Tabs for In The Hall Of The Mountain King. Lyrics for acoustic guitar and electric guitar. 1 Tablatures and chords are parodies/interpretations of the original songs. You may use it for private study, scholarship, research or language learning purposes only