» » »

Hall Of The Mountain King Tabs (ver.3)

Artists:  A B C D E F G H I J K L M N O P Q R S T U V W X Y Z # 

Hall Of The Mountain King Tabs (ver.3)

Edvard Grieg
Rating:
0/5 (0 votes)

Tabs too difficult? Try these video lessons and learn fast.
                \---Song:-Hall-of-the-Mountain-King---\
 \---Composer:-Edvard-Grieg------------\
  \---Transcription-by:Christian Liang--\
/---Enjoy!----------------------------/

==========================================================================
         Hall of the Mountain King by Edvard Grieg (1843 - 1907)
==========================================================================

March Tempo
Time Signature: 4/4
Key: A minor

[1]                                                      
E||--------0---0---|-----------------|---------0---0-5-|-3-0---0-3------||
B||--0-1-3---1-----|-4---4---3---3---|---0-1-3---1-----|-----1----------||
G||2---------------|---4-------3-----|-2---------------|---------------*||
D||----------------|-----------------|-----------------|---------------*||
A||0======-0=======|-0======-0======-|-0======-0======-|-3======-3=====-||
E||----------------|-----------------|-----------------|----------------||
   | | | | | | | |   | | | | | | | |   | | | | | | | |   | | | | | | | | 
   |   |   |   |     |   |   |   |     |   |   |   |     |   |   |   |        
L  2   1 4   1       4 3 4   4 3 4     2 1 4     1   4   4   1   4
                                                         3       3

[5]                  I......                             I......           
E||----------------|-----------------|-----------------|-----------------|
B||--------0---0---|-1---1---0---0---|---------0---0---|-1---2---0======-|
G||----1-2---1-----|---1-------1-----|-----1-2---1-----|---1-------------|
D||2-4-------------|-----------------|-2-4-------------|-----------------|
A||----------------|-----------------|-----------------|-----------------|
E||0======-0======-|-0======-0======-|-0======-0======-|-0======-0======-|
   | | | | | | | |   | | | | | | | |   | | | | | | | |   | | | | | | | | 
   |   |   |   |     |   |   |   |     |   |   |   |     |   |   |   |        
L  2 4 1 2   1       1 1 1     1       2 4 1 2   1       1 1 2


                                                         _______________
                                                        |1.
[9]               
E||--------0---0---|-----------------|---------0---0-5-|-3-0---0-3------||
B||--0-1-3---1-----|-4---4---3---3---|---0-1-3---1-----|-----1----------||
G||2---------------|---4-------3-----|-2---------------|---------------*||
D||----------------|-----------------|-----------------|---------------*||
A||0======-0=======|-0======-0======-|-0======-0======-|-3======-3=====-||
E||----------------|-----------------|-----------------|----------------||
   | | | | | | | |   | | | | | | | |   | | | | | | | |   | | | | | | | | 
   |   |   |   |     |   |   |   |     |   |   |   |     |   |   |   |        
L  2   1 4   1       4 3 4   4 3 4     2 1 4     1   4   4   1   4
                                                         3       3
 

   _______________
  |2.
[13]                                                      
E|-4-0-4-7-5======-|
B|-----------------|
G|-----------------|
D|-----------------|
A|---------0======-|
E|-0======---------|
   | | | | | | | |  
   |   |   |   |         
L  1   1 4 2
            
Tabs too difficult? Try these video lessons and learn fast.


comments powered by Disqus
↑ Back to top | Tablatures and chords are parodies/interpretations of the original songs. You may use it for private study, scholarship, research or language learning purposes only