» » »

Hall Of The Mountain King Tabs (ver.2)

Artists:  A B C D E F G H I J K L M N O P Q R S T U V W X Y Z # 

Hall Of The Mountain King Tabs (ver.2)

Edvard Grieg
Rating:
2/5 (1 vote)

Hard to play? Try these video lessons and learn fast.
                This is a cool as riff/intro that is fun to play, and its pretty simple as well.

e|---------------------------------------------------------|
B|---------------------------------------------------------|
G|---------------------------------------------------------|
D|---------------------------------------------------------|
A|---------0--2---2---1---1---0---0------------------------|
E|--0-2-3-------3-------2-------1--------------------------|

e|---------------------------------------------------------|
B|---------------------------------------------------------|
G|---------------------------------------------------------|
D|---------------------2-----------0-----------------------|
A|----------0-2---2------2--0----2-------------------------|
E|--0-2-3-------3--------------3---------------------------|

then you move it up a string, simple :)
like this;

e|---------------------------------------------------------|
B|---------------------------------------------------------|
G|---------------------------------------------------------|
D|---------0--2---2---1---1---0---0------------------------|
A|--0-2-3-------3-------2-------1--------------------------|
e|---------------------------------------------------------|


e|---------------------------------------------------------|
B|---------------------------------------------------------|
G|---------------------2-----------0-----------------------|
D|----------0-2---2------2--0----2-------------------------|
A|--0-2-3-------3--------------3---------------------------|
e|---------------------------------------------------------|


 this is how i play it if theres any problems or changes that need to be made, please 
a commment :)
            
Hard to play? Try these video lessons and learn fast. | Correct




comments powered by Disqus
↑ Back to top | Tablatures and chords are parodies/interpretations of the original songs. You may use it for private study, scholarship, research or language learning purposes only