» » »

I Want To Master Life And Death Ukulele Chords (ver.1)

Artists:  A B C D E F G H I J K L M N O P Q R S T U V W X Y Z # 

I Want To Master Life And Death Ukulele Chords (ver.1)

Drop Dead Gorgeous
Rating:
0/5 (0 votes)

Tabs too difficult? Try these video lessons and learn fast.
                Think of this as an acoustic version, I've left out some parts that really can't 
be played in an acoustic version.
Also tune it down a halft step! Hope you'll like it :)

   F5: Eb5:   Fm:   Eb:
D#|-------------2-----0---|
A#|-------------2-----0---|
F#|-------------2-----1---|
C#|-4-----2-----4-----2---|
G#|-4-----2-----4-----2---|
D#|-2-----0-----2-----0---|


Intro:

F5 Eb 

        F5                                  Eb5
I would do for you what you did to me, even kill
                      F5                             Eb5
But to you I'm just a mirror, well sometimes mirrors shatter
                    F5                                 Eb5
The sharpel becomes deadly, it surrounds you with no escape
     F5                 Eb5
And you can't save her, you can't save her

       Fm                               Eb               
Like a ghost, you slept in my bed and I fell while you tore through my neck
          Fm                               Eb
When I awoke, you were already dead, those eyes I'll never forget

F5                              Eb5
Make your move, take your time, every pawn threatens your life
F5                            Eb5
Go raise hell, come up short, no mercy is granted here
F5                                    Eb5
Best come clean, kill your stride and keep your head, cleanse your life.
      F5                 Eb5
Cause you can't save her you can't save her.

       Fm                               Eb               
Like a ghost, you slept in my bed and I fell while you tore through my neck
          Fm                               Eb
When I awoke, you were already dead, those eyes I'll never forget 
REPEAT CHORUS


       Fm
Like a ghost
       Eb
Like a ghost
       Fm
Like a ghost
       Eb
Like a ghost

        F5                                  Eb5
I would do for you what you did to me, even kill
                      F5                             Eb5
But to you I'm just a mirror, well sometimes mirrors shatter

Play Chorus without singing


  Fm
I swear, I swear,
You won't find her body.
  Eb
I swear, I swear,
You won't find her body

Repeat, then end on a Fm chord. 
I've also tabbed a lead part for the chorus and post chorus.


Tuning: Halft step down

CHROUS PART:

              Fm                                           
  Like  A     Ghost                         You  slept in my bed       And I
|----------------------------------------------------------------------------|
|----------------------------------------------------------------------------|
|-11----13----14--14-14-14-14-14---14-14-14-14-14---14-14-14-13-13--13-13-14-|
|----------------------------------------------------------------------------|
|-9-----10----12--12-12-12-12-12---12-12-12-12-12---12-12-12-11-11--11-11-12-|
|----------------------------------------------------------------------------|
  Eb                                               Fm
  Fell    while you tore through my neck, when I awoke
|------------------------------------------------------------------|
|------------------------------------------------------------------|
|-16--16-16-16-16-16---16-16-16-16--14---16----18--18-18-18-18-18--|
|------------------------------------------------------------------|
|-14--14-14-14-14-14---14-14-14-14--12---14----16--16-16-16-16-16--|
|------------------------------------------------------------------|
                                                Eb
  You  were    already      dead          those eyes        I...
|----------------------------------------------------------------|
|----------------------------------------------------------------|
|-14---16---18--18-18-18-18--16--16-16-16--14---16--16-16-16-16--|
|----------------------------------------------------------------|
|-12---14---16--16-16-16-16--14--14-14-14--12---14--14-14-14-14--|
|----------------------------------------------------------------|


  Never         forget
|----------------------------------|
|----------------------------------|
|-13--13-13-13-13-14--14-14-14-14--|
|----------------------------------|
|-11--11-11-11-11-12--12-12-12-12--|
|----------------------------------|



POST CHORUS PART:

           Fm
  Like A   Ghost...
|-------------------------------------------------|
|-------------------------------------------------|
|-11---13---14--14-14-14-14-14---14-14-14-14-14---|
|-------------------------------------------------|
|-9----11---12--12-12-12-12-12---12-12-12-12-12---|
|-------------------------------------------------|
            Eb
  Like  A   Ghost...
|-------------------------------------------------|
|-------------------------------------------------|
|-13----16---13--13-13-13-13-13---13-13-13-13-13--|
|-------------------------------------------------|
|-11----14---11--11-11-11-11-11---11-11-11-11-11--|
|-------------------------------------------------|
            
Tabs too difficult? Try these video lessons and learn fast.




comments powered by Disqus
↑ Back to top | Tablatures and chords are parodies/interpretations of the original songs. You may use it for private study, scholarship, research or language learning purposes only