» » »

Gold Rush Chords (ver.5)

Artists:  A B C D E F G H I J K L M N O P Q R S T U V W X Y Z # 

Gold Rush Chords (ver.5)

Ed Sheeran
Rating:
0/5 (0 votes)
Tabs too difficult? Try these video lessons and learn fast.
                I like this song off Ed's new album ... i couldn't see that anyone had uploaded 
anything so i thought i'd put it up :)
the strumming is very simple and the muting/mild hitting of the guitar is easy 
too, i'm sure you can work it out by listening to the song!!!

standard tuning, no capo
timings approximate

**UPDATE**
F#m instead of F#
Changes to solo



Fiddle around with the notes used in the solo for the other guitar you can here 
over the intro, verse and choruses


Intro: E, F#m, A X2

E         F#m           A
Smoke alarm went off at 9
E          F#m               A
I woke up, wiped the sleep out of my eyes
     E           F#m               A
She left a note 'I'll be back in 5'
      E              F#m               A
Well, I'm still waiting for that moment to arrive,


C#m             A                      B
I was told to put my job in front of you
C#m          A        B
But it won't hold me like you do


                    E
But I do it for the love
               F#m
Waiting on the gold rush
               A
Keep it on the edge
Smoking on a roll up
              E
When I see my friends
                F#m
All they say is hold up
                 A
And remember the time
                 E
When we were in school
             F#m
Listening to grown ups
               A
Didn't learn a thing
But then again you know what
                E
You know how to sing
                   F#m
But you don't know anything
A
Other than that


                             E
So maybe you should learn to love her
 F#m            A
Like, like the way
                            E
Maybe you should learn to love her
 F#m            A
Like, like the way
                            E
Maybe you should learn to love her
 F#m            A
Like, like the way
                               E
And maybe you should learn to love her
 F#m            A
Like, like the way
You want to be loved

E         F#m              A
I never told her that I liked
      E       F#m            A
The way she dances slightly out of time
E             F#m             A
And pretends she knows the words
To a song she's never heard
E     F#m              A
But I tell her all the time

C#m      A      B
I was told to put my job in front of you
C#m          A        B
But it won't hold me like you do


                    E
But I do it for the love
               F#m
Waiting on the gold rush
               A
Keep it on the edge
Smoking on a roll up
              E
When I see my friends
                F#m
All they say is hold up
                 A
And remember the time
                 E
When we were in school
             F#m
Listening to grown ups
               A
Didn't learn a thing
But then again you know what
                E
You know how to sing
                   F#m
But you don't know anything
A
Other than that


                             E
So maybe you should learn to love her
 F#m            A
Like, like the way
                            E
Maybe you should learn to love her
 F#m            A
Like, like the way
                            E
Maybe you should learn to love her
 F#m            A
Like, like the way
                               E
And maybe you should learn to love her
 F#m            A
Like, like the way
You want to be loved


Interlude E, F#m, A (as you could've guessed)

OR if you want to

e|------------------------------------------------------------------------|
B|------------------------------------------------------12----12-12-14-17-|
G|--13-13-13-13-11-9--9-9-11-9------------------9-11-13----13-------------|
D|-----------------------------11-11-9-9---9-11---------------------------|
A|------------------------------------------------------------------------|
E|------------------------------------------------------------------------|

e|-16-16-12-12h14p12----------------------------------------|
B|------------------14-14-12-12-----------------------------|
G|------------------------------14-13-13-11-----------------|
D|------------------------------------------14-14-----------|
A|------------------------------------------------11-9------|
E|-----------------------------------------------------12---|

e|---------------------------------------------------------------------|
B|---------------------------------------------------------------9-9-7-|
G|----------------------------------------------11-13-13-13-11-9-------|
D|----------------------------------------11-13------------------------|
A|-11b-11b-11b-11b-11------------11h12-14------------------------------|
E|-------------------12-12-12h14---------------------------------------|


                    E
But I do it for the love
               F#m
Waiting on the gold rush
               A
Keep it on the edge
Smoking on a roll up
              E
When I see my friends
                F#m
All they say is hold up
                 A
And remember the time
                 E
When we were in school
             F#m
Listening to grown ups
               A
Didn't learn a thing
But then again you know what
                E
You know how to sing
                   F#m
But you don't know anything
A
Other than that


                             E
So maybe you should learn to love her
 F#m            A
Like, like the way
                            E
Maybe you should learn to love her
 F#m            A
Like, like the way
                            E
Maybe you should learn to love her
 F#m            A
Like, like the way
                               E
And maybe you should learn to love her
 F#m            A
Like, like the way
You want to be loved



The tabbed solo may not be perfect but if anyone has corrections, they're welcome!
            
Tabs too difficult? Try these video lessons and learn fast.


comments powered by Disqus
↑ Back to top | Tablatures and chords are parodies/interpretations of the original songs. You may use it for private study, scholarship, research or language learning purposes only