» » »

Ed Sheeran, Give Me Love Tabs (ver.2)

Artists:  A B C D E F G H I J K L M N O P Q R S T U V W X Y Z # 

Give Me Love Tabs (ver.2)

Ed Sheeran Tabs
Rating:
0/5 (0 votes)
Give Me Love lessons Tabs too difficult? Try these video lessons and learn fast
                ------------------------------------------------------------------------------
Give Me Love - Ed Sheeran
-------------------------------------------------------------------------------

Tuning: Standard/ Capo on 2nd fret

Intro and verse                       …You know I'll fight my corner
e|----------------------------------|--------------------------------------|
B|----------------4--------------4--|-----4----------4---2-----------------|
G|----------------4-------1------4--|-----4-----1----4---3-----------------|
D|----------------6-------2------4--|-----6-----2----4---4-----------------|
A|----3-----------6-------2------2--|-----6-----2----2---4-----------------|
E|------0-2-4-----4-------0---------|-----4-----0--------2-----------------|

I just wanna hold ya…   Give a little time to me...
e|---------------------|---------------------------------------------------------|
B|-----6---------------|---4-----------------------------------------------------|
G|-----6----1----------|---4----6----1  -----------------------------------------|
D|-----6----2----------|---4----6----2-------------------------------------------|
A|-----4----2----------|---2----6----2-------------------------------------------|
E|----------0----------|--------4----0-------------------------------------------|

Chorus: My my, my my…                Bridge/Breakdown My my, my my, my my…..
e|-----------------------------------|-----------------------|
B|--4-----2--------------------------|-----------------------|
G|--4-----3-----1--------------------|-----------------------|
D|--2-----4-----2--------------------|-----------------------|
A|--2-----4-----2-------------222222-|-----------------------|
E|--4-----2-----0-----444-000--------|---44--44--44--22-2h4--|repeat however many times,
then go back to chorus

Ed plays up the fretboard with different variations of the Ab and Gb and D and E notes
toward the end. You can palm mute the 12th and 10th frets on the low E string
respectively with the capo. Just feel it out. Or you can just stay on the 4th and 2nd
fret. It's arbitrary. At the end you can just play the chorus and pre chorus however you
want til you
get to the end.  Have fun. This is a great song and every tab I read was soooooooo
wrong! This is the real deal, and if you look up Ed playing it on you tube acoustically, you
can play right along.  That's what I did. Ed's fingering styles are misleading. He looks 
like he's playing something different than what he is. Trust me, I got you. Peace!!!! 
Hit me
at my email with any feedback. Luv y'all!

************************************

| /   slide up
| \   slide down
| h   hammer-on
| p   pull-off
| ~   vibrato
| +   harmonic
| x   Mute note
| b   Bend
| pb  Pre-bend
| br  Bend release
| pbr Pre-bend release
| brb Bend release bend

************************************
            
Submit corrections

comments powered by Disqus
↑ Back to top | Ed Sheeran Tabs for Give Me Love. Lyrics for acoustic guitar and electric guitar. Tablatures and chords are parodies/interpretations of the original songs. You may use it for private study, scholarship, research or language learning purposes only