» » »

Ed Sheeran, Feeling Good Tabs (ver.1)

Artists:  A B C D E F G H I J K L M N O P Q R S T U V W X Y Z # 

Feeling Good Tabs (ver.1)

Ed Sheeran Tabs
 Rating:
4/5 (4 votes)
Feeling Good lessons Tabs too difficult? Try these video lessons and learn fast
1
                -----------------------------------------------------------------------------
                             Feeling Good (cover) - Ed Sheeran
-----------------------------------------------------------------------------


Tuning: EADGBe (standard)

Capo: 3rd fret (all relates to capo)

I tabbed this from the video and I'm pretty sure its spot on.
Ed plays it by picking the A string and then plays the rest of the strings under it.
He doesnt play the top E string so he mutes it which might be a good idea when playing 
it if your a beginner.
This is my first tab so please rate 5 stars if you have any problems feel free to comment below.
(Forgive me if i have the wrong names for the chords)
Enjoy

VERSE
       Fm7      D7       B7
e------x--------x--------x-------------|
b------6--------5--------3-------------|
g------x--------x--------x-------------|
d------7--------5--------3-------------|
a--5------5-3------3-1------0--0-3-0-3-|
E--------------------------------------|

Before the next Verse he plucks the
B7 and plucks a C chord.

CHORUS
       B7       B7     D7      D7      B7
e------x--------x-------x------x-------xxxxxx----------|
b------3--------3-------5------5-------555555----------|
g------x--------x-------x------x-------xxxxxx----------|
d------3--------3-------5------5-------333333----------|
a--1------1-1-----1/3-----3-3-----3/1--111110--0-3-0-3-|
E------------------------------------------------------|



 Birds flying high
 You know how I feel
 Sun in the sky
 You know how I feel
 Breeze driftin' on by
 You know how I feel
 It's a new dawn
 It's a new day
 It's a new life
 For me
 And I'm feeling good
 I'm feeling good

Fm7 D7 B7

Fm7     D7
Fish in the sea
B7
 You know how I feel
Fm7        D7
 River running free
B7
 You know how I feel
Fm7         D7
 Blossom on a tree
B7
 You know how I feel
B7
 It's a new dawn
B7
 It's a new day
D7
 It's a new life
 For me

 And I'm feeling good

Fm7 D7 B7 C

Fm7                  D7                B7
Dragonfly out in the sun you know what I mean, don't you know
Fm7              D7         B7
 Butterflies all havin' fun you know what I mean
Fm7              D7
 Sleep in peace when day is done
B7
 That's what I mean
B7
 And this old world is a new world
D7
 And a bold world
D7
 For me

And I'm feeling good

Fm7 D7 B7 C

Fm7        D7
Stars when you shine
B7
 You know how I feel
Fm7        D7
 Scent of the pine
B7
 You know how I feel
Fm7         D7
 Oh freedom is mine
B7
 And I know how I feel
B7
 It's a new dawn
B7
 It's a new day
D7
 It's a new life
B7
 It's a new dawn
B7
 It's a new day
D7
 It's a new life
B7
 It's a new dawn
B7
 It's a new day
D7
 It's a new life
D7
 It's a new life
B7
 For me

And I'm feeling good
            
Submit corrections

comments powered by Disqus
↑ Back to top | Ed Sheeran Tabs for Feeling Good. Lyrics for acoustic guitar and electric guitar. 1 Tablatures and chords are parodies/interpretations of the original songs. You may use it for private study, scholarship, research or language learning purposes only