» » »

Ed Sheeran, Autumn Leaves Chords (ver.2)

Artists:  A B C D E F G H I J K L M N O P Q R S T U V W X Y Z # 

Autumn Leaves Chords (ver.2)

Ed Sheeran Tabs
Rating:
5/5 (2 votes)
Hard to play? Try these video lessons and learn fast.
                picking described wasn't quite right.
When I say 'G with F#' it is not G/F because G doesn't have an F# in. Just move your 
root note down one fret.
Also the G - play with your 3rd finger on 3rd fret of B string. Still a G chord but 
obviously you get that recurring D not in all the chords.
Where it is a C chord you can play it 2 ways. The way I have tabbed (the way Ed plays), 
but you could also try this way which I prefer:

e-----------------------|
B-------1--pull off 0---|
G----0------------------|
D-----------------------|
A--3--------------------|
E-----------------------|

You could add this in maybe every 3rd time - just to add some contrast if you want to. 
Don't take this tab as gospel - play around with it - picking is meant to be experimented with!



Capo 2


Intro

E7     G with F#     G     C

e-----------------------------------------------------------------------------|
B-------3--------3--------3--------3------------------------------------------|
G-----0---0----0---0----0---0----0---3----------------------------------------|
D-----------------------------------------------------------------------------|
A------------------------------3----------------------------------------------|
E---0--------2--------3-------------------------------------------------------|

Repeat again once for intro, then repeat twice for verse. Then there are 2 verses 
together... You get it dont you?! You play 6 times, then the chorus 4 times, then the verse 4 
times etc.



Chorus

 G     G with F#     E7     C

e-----------------------------------------------------------------------------|
B------3---------3--------3--------3------------------------------------------|
G----0---0-----0---0----0---0----0---0----------------------------------------|
D-----------------------------------------------------------------------------|
A------------------------------3----------------------------------------------|
E--3---------2--------0-------------------------------------------------------|

Repeat 3 more times.




So, yeah! As I say - experiment with this. Embellish it with hammer ons, pull offs, 
fills - what ever you want. It's a beautiful song!
            

comments powered by Disqus
↑ Back to top | Ed Sheeran Chords for Autumn Leaves. Lyrics for acoustic guitar and electric guitar. Tablatures and chords are parodies/interpretations of the original songs. You may use it for private study, scholarship, research or language learning purposes only