» » »

World Over Tabs (ver.1)

Artists:  A B C D E F G H I J K L M N O P Q R S T U V W X Y Z # 

World Over Tabs (ver.1)

Ednas Goldfish
Rating:
0/5 (0 votes)

Hard to play? Try these video lessons and learn fast.
                WORLD OVER - Edna's Goldfish 

Intro/Chorus 
e|---------------------------------------------------------------------------| 
B|---------------------------------------------------------------------------| 
G|-7-------------------------------------------------------------------------| 
D|-7-4-5---------------------------------------------------------------------| 
A|-5-4-5---------------------------------------------------------------------| 
E|---2-3---------------------------------------------------------------------| 

Verse (P.M.) 
e|---------------------------------------------------------------------------| 
B|---------------------------------------------------------------------------| 
G|-----7-----7-----7-7-----7-7-----------------------------------------------| 
D|--------------------------------5-5----5-5---5-5---5-5---------------------| 
A|-5-5---5-5---5-5-----5-5---------------------------------------------------| 
E|-----------------------------3-3----3-3---3-3---3-3------------------------| 

2nd Verse (octaves) 
e|---------------------------------------------------------------------------| 
B|---------------------------------------------------------------------------| 
G|-7-------------------------------------------------------------------------| 
D|---5-----------------------------------------------------------------------| 
A|-5-------------------------------------------------------------------------| 
E|---3-----------------------------------------------------------------------| 
            
Hard to play? Try these video lessons and learn fast. | Correct




comments powered by Disqus
↑ Back to top | Tablatures and chords are parodies/interpretations of the original songs. You may use it for private study, scholarship, research or language learning purposes only