» » »

Story Tabs (ver.1)

Artists:  A B C D E F G H I J K L M N O P Q R S T U V W X Y Z # 

Story Tabs (ver.1)

Ednas Goldfish
Rating:
0/5 (0 votes)
Tabs too difficult? Try these video lessons and learn fast.
                STORY - Edna's Goldfish 

Intro/Verse 
e|-4-6----------------------------------------------------------------------| 
B|-4-6----------------------------------------------------------------------| 
G|-5-6----------------------------------------------------------------------| 
D|-6-6----------------------------------------------------------------------| 
A|-6-4----------------------------------------------------------------------| 
E|-4-4----------------------------------------------------------------------| 

Chorus 
e|--------------------------------------------------------------------------| 
B|--------------------------------------------------------------------------| 
G|---5---6------------------------------------------------------------------| 
D|-6-5-3-6------------------------------------------------------------------| 
A|-6-3-3-4------------------------------------------------------------------| 
E|-4---1--------------------------------------------------------------------| 
            
Tabs too difficult? Try these video lessons and learn fast.


comments powered by Disqus
↑ Back to top | Tablatures and chords are parodies/interpretations of the original songs. You may use it for private study, scholarship, research or language learning purposes only