» » »

Ednas Goldfish, Invincible Tabs (ver.1)

Artists:  A B C D E F G H I J K L M N O P Q R S T U V W X Y Z # 

Invincible Tabs (ver.1)

Ednas Goldfish Tabs
 Rating:
4/5 (4 votes)
Invincible lessons Tabs too difficult? Try these video lessons and learn fast
                INVINCIBLE - Edna's Goldfish 

Intro 
e|--------------------------------------------------------------------------| 
B|--------------------------------------------------------------------------| 
G|-7------------------------------------------------------------------------| 
D|-7-5----------------------------------------------------------------------| 
A|-5-5-7-9-9-7--------------------------------------------------------------| 
E|---3-5-5-5-5--------------------------------------------------------------| 
The 5/9's are right, listen closely and you'll hear them 

Verse (2nd part of the verse is the intro) 
e|-7-3-5--------------------------------------------------------------------| 
B|-7-3-5--------------------------------------------------------------------| 
G|-7-4-6--------------------------------------------------------------------| 
D|-7-5-7--------------------------------------------------------------------| 
A|-5-5-7--------------------------------------------------------------------| 
E|-5-3-5--------------------------------------------------------------------| 

Chorus 
e|--------------------------------------------------------------------------| 
B|--------------------------------------------------------------------------| 
G|-7------------------------------------------------------------------------| 
D|-7-------5-7--------------------------------------------------------------| 
A|-5-5-4-0-5-7--------------------------------------------------------------| 
E|---------3-5--------------------------------------------------------------| 

Bridge 
e|--------------------------------------------------------------------------| 
B|--------------------------------------------------------------------------| 
G|-7-9---7------------------------------------------------------------------| 
D|-7-9-9-7-7-4-5------------------------------------------------------------| 
A|-5-7-9-5-7-4-5------------------------------------------------------------| 
E|-----7---5-2-3------------------------------------------------------------| 
            
Submit corrections

comments powered by Disqus
↑ Back to top | Ednas Goldfish Tabs for Invincible. Lyrics for acoustic guitar and electric guitar. Tablatures and chords are parodies/interpretations of the original songs. You may use it for private study, scholarship, research or language learning purposes only