» » »

Ednas Goldfish, I'm Your Density Tabs (ver.1)

Artists:  A B C D E F G H I J K L M N O P Q R S T U V W X Y Z # 

I'm Your Density Tabs (ver.1)

Ednas Goldfish Tabs
Rating:
0/5 (0 votes)
I'm Your Density lessons Tabs too difficult? Try these video lessons and learn fast
                I'M YOUR DENSITY - Edna's Goldfish 

Intro/Verse 
e|-5-7-5-9-------------------------------------------------------------------| 
B|-5-7-5-9-------------------------------------------------------------------| 
G|-6-7-6-9-------------------------------------------------------------------| 
D|-7-7-7-9-------------------------------------------------------------------| 
A|-7-5-7-7-------------------------------------------------------------------| 
E|-5-5-5-7-------------------------------------------------------------------| 

Bridge 
e|-12-14---------------------------------------------------------------------| 
B|-12-14---------------------------------------------------------------------| 
G|-13-14---------------------------------------------------------------------| 
D|-14-14---------------------------------------------------------------------| 
A|-14-12---------------------------------------------------------------------| 
E|-12-12----------------------------------------------------------------------| 
            

comments powered by Disqus
↑ Back to top | Ednas Goldfish Tabs for I'm Your Density. Lyrics for acoustic guitar and electric guitar. Tablatures and chords are parodies/interpretations of the original songs. You may use it for private study, scholarship, research or language learning purposes only